Guitar Tabs, Chords and Lyrics


Solid State    Obituary



OBITUARY - SOLID STATE
                            From the Album - WORLD DEMISE
                         Copyright - ROADRUNNER RECORDS 1994
                              Version 2.0 - Oct 30, 2002


Transcribed by: James Williams (Inverted)

For Questions, Comments, Newest Version, or Corrections contact
Inverted: at Inverted_one@hotmail.com

Check Out Death8699.com Metaltabs.com or dsrmusic.com for More
Transcriptions:http://www.Death8699.com http://www.Metaltabs.com
http://www.dsrmusic.com/metaltab

.  - palm mute           /  - slide up to
\  - slide down to       ~  - vibrato
h  - hammer on           b  - Bend
p  - pull off            Suffixes for bend
t  - tap                 f  - full bend    h - half bend
ph - pinched harmonic    q  - quarter bend t - tap bend
nh - natural harmonic    ^  - Hold bend    r release bend
*  - see comment         ~  - vibrato bend
x  - Stuccatto           () - ghost note, sustained note
,  - slight palm mute     - Trill
"  - tremolo note

Tuning: "D"G"C"F"A"D"


Riff 1
|------------------------------|
|------------------------------|
|------------------------------|
|----------------5------7-5-3--|
|--2------5------3------5-3-1--|
|--0--0-0-3--0-0----0-0--------|
      . .    . .    . .

Fill 1
|------------------------------|
|------------------------------|
|------------------------------|
|------------------------------|
|--2---------------------------|
|--0---------------------------|


Riff 2
|---------------------|
|---------------------|
|---------------------|
|--2---------------5--|
|--0------------5--3--|
|-----------0-0-3-----|
            . .

Riff 3                        x3                       x1
|-------------------------------| |----------------------|
|-------------------------------| |----------------------|
|-------------------------------| |----------------------|
|-------------------------------| |----------------------|
|--3------2----2------2-2-------| |--3------2------(2)x--|
|--1--0-0-0----0--0-0-0-0--0-0--| |--1--0-0-0------(0)x--|
      . .         . .      . .          . .

Riff 4-A
|-----------------------------------------|
|-----------------------------------------|
|-----------------------------------------|
|--2---------3---------5---------6/5-3\5--|
|--0--000000-1--000000-3--000000-4/3-1\3--|
|-----------------------------------------|


Riff 5
|------------------------------------|
|------------------------------------|
|------------------------------------|
|------------------------------------|
|--------------------------44443333--|
|--000000004444333333333333----------|


Riff 4-B
|--------------------------------------------------|
|--------------------------------------------------|
|--------------------------------------------------|
|--2---------3---------5---------5--4-----4--3-----|
|--0--000000-1--000000-3--000000-3--2--4--2--1--3--|
|--------------------------------------2--------1--|


Riff 4-C
|--------------------------------------------------------------------|
|--------------------------------------------------------------------|
|--------------------------------------------------------------------|
|--2---------3---------5---------5--4--------------4-----------------|
|--0--000000-1--000000-3--000000-3--2--4--3--4--5--2--4--3--5--4--3--|
|--------------------------------------2--1--2--3-----2--1--3--2--1--|


Fill 2
|--------|
|--------|
|--------|
|--------|
|--2x----|
|--0x----|


Riff 6-A
|-----------------------------------|
|-----------------------------------|
|-----------------------------------|
|--------------------------5--------|
|--2-------2-------2-------3-5-4\5--|
|--0--0000-0--0000-0--0000---3-2\3--|
   .  .... .  .... .  ....

Riff 6-B
|-----------------------------------|
|-----------------------------------|
|-----------------------------------|
|--------------------------5--------|
|--2-------2-------8/7-----3-5-4\5--|
|--0--0000-0--0000-6/5-0-0---3-2\3--|
   .  .... .  ....     . .

Riff 7
|------------------------------------------------------------------|
|------------------------------------------------------------------|
|------------------------------------------------------------------|
|---------------------------6/5-6---------------------------8/7-6--|
|-------8---7---------------4/3-4-------8---7---------------6/5-8--|


Important: The song above is NOT stored on the Chordie server. The original song is hosted at www.xguitar.com. Chordie works as a search engine and provides on-the-fly formatting. Chordie does not index songs against artists/composers will. To remove this song please click here.

This song is displayed as text-only. Transposing and tuning is only available for chordpro-songs.

Login - add to songbook

Rating click stars to rate

Layout
Accuracy

SHARE PAGE  




You need to log in to post comments