Chordie logo

King of Good Intentions   Oleander



Oleander - King Of Good Intentions
Submitted By: diehardtabs
EMail: Mitchell_J@hotmail.com
CD: Joyride
Tabber: Mitchell (Mitchell_J@hotmail.com)
Tuning: Dropped D flat (Db Ab Db Gb Bb eb)

~= hold note/chord   PM= palm mute   /= slide   x= mute   ^&r= bend and release

This song was harder than I thought. It took quite a while to tab out.
The pre-chorus is iffy.. it's hard to tell where the strums are, because
they don't go in any actual timing in the song.
Any corrections or comments, contact me!

Intro: second guitar comes in with delay pedal, I think
eb -----------------------------|-----------------------
Bb -----------------------------|-----------------------
Gb ---------5-5------------4----|-8-5-8-5-8-5-8-5-8-5~--
Db -0--0-0--5-5--4--4-4-4--4--3-|-----------------------
Ab -0--0-0--3-3--4--4-4-4--2--3-|-----------------------
Db -0--0-0-------4--4-4-4-----3-|-----------------------

Verse:
eb ------------------------------------------------------
Bb ------------------------------------------------------
Gb -7~-----PM---5~-----PM-----------5-5------------4-----
Db -5~-----5-5--3~-----3-3--0--0-0--5-5--4--4-4-4--4--3--
Ab -5~-----5-5--3~-----3-3--0--0-0--3-3--4--4-4-4--2--3--
Db -5~-----5-5--3~-----3-3--0--0-0-------4--4-4-4-----3--

Pre-chorus:
eb -----------------------------------------------------------
Bb -----------------------------------------------------------
Gb -----2~------------2~------------5~----5-5-5/7--7-7-7-7-7--
Db -----0~------------0~------------3~----3-3-3/5--5-5-5-5-5--
Ab -0-0-0~----^&r--0--0~----^&r--3--3~----3-3-3/5--5-5-5-5-5--
Db -0-0-0~-----3---0--0~-----3---3--3~----3-3-3/5--5-5-5-5-5--

eb -----------------------------------------------------------------------
Bb -----------------------------------------------------------------------
Gb -----2~------------2~------------5~----5-5-5/7--7-7-7/8-8-8-8-8-8-8-8--
Db -----0~------------0~------------3~----3-3-3/5--5-5-5/6-6-6-6-6-6-6-6--
Ab -0-0-0~----^&r--0--0~----^&r--3--3~----3-3-3/5--5-5-5/6-6-6-6-6-6-6-6--
Db -0-0-0~-----3---0--0~-----3---3--3~----3-3-3/5--5-5-5/6-6-6-6-6-6-6-6--

Chorus: MANY chord changes.. the 6th fret chord is strummed TWICE maybe
eb -------------|-----------------|--------------|------------
Bb -------------|-----------------|--------------|------------
Gb -------7-----|--------7--------|-----5-----7--|--------7~--
Db -7--3--7--5--|--7--3--7--5--6--|--7--5--3--7--|--7--3--7~--
Ab -7--3--5--5--|--7--3--5--5--6--|--7--3--3--5--|--7--3--5~--
Db -7--3-----5--|--7--3-----5--6--|--7-----3-----|--7--3------

Bridge:
eb ----------------------------------------------------------------------------
Bb ----------------------------------------------------------------------------
Gb ----------5-5-5-5-5---------------------------------------------------------
Db -7-7-7-7--5-5-5-5-5---------------------------------------------------------
Ab -7-7-7-7--3-3-3-3-3---------------------------------------------------------
Db -7-7-7-7-------------3-3-3-3-3--5-5-5-5-5--3-3-3-3-3--5-5-5-5-5--6-6-6-6-6--

Instrumental part: Intro riff plays in background
eb --------------------------------------------------------------------
Bb --------------------------------------------------------------------
Gb -7/9-9-9-9-9-9-9-9/10-10-10-10-10/12-12-12-12-12/--7-7-7-7-7-7/9/7--
Db -x-x-x-x-x-x-x-x-x-x--x--x--x--x--x--x--x--x--x----x-x-x-x-x-x-x-x--
Ab -5/7-7-7-7-7-7-7-7/8--8--8--8--8/-10-10-10-10-10/--5-5-5-5-5-5/7/5--
Db --------------------------------------------------------------------

eb ----------------------------------------------------------------------------
Bb --------------------------------------------------13-13-13-13--12-12-10-10--
Gb -7/9-9-9-9-9-9-9-9/10-10-10-10-10/12-12-12-12-12--x--x--x--x---x--x--x--x---
Db -x-x-x-x-x-x-x-x-x-x--x--x--x--x--x--x--x--x--x---10-10-10-10--9--9--7--7---
Ab -5/7-7-7-7-7-7-7-7/8--8--8--8--8/-10-10-10-10-10----------------------------
Db ----------------------------------------------------------------------------

Outro:
eb ---------------------------
Bb -----------------------3~--

Gb -----------------------2~--
Db -7-7-7-7-7--3-3-3-3-3--0~--
Ab -7-7-7-7-7--3-3-3-3-3--0~--
Db -7-7-7-7-7--3-3-3-3-3--0~--

Chords: Db  E   F   F#  G   G#  A#  B   C#
eb	x   x   x   x   x   x   x   x   x
Bb	x   x   x   x   x   x   x   x   x
Gb	x   x   x   x   x   x   4   5   7
Db	0   3   4   5   6   7   4   5   7
Ab	0   3   4   5   6   7   2   3   5
Db	0   3   4   5   6   7   x   x   x



Important: The song above is NOT stored on the Chordie server. The original song is hosted at www.xguitar.com. Chordie works as a search engine and provides on-the-fly formatting. Chordie does not index songs against artists/composers will. To remove this song please click here.

This song is displayed as text-only. Transposing and tuning is only available for chordpro-songs.

Login - add to songbook

Rating click stars to rate

Layout
Accuracy

SHARE PAGE  

You need to log in to post comments