Guitar Tabs, Chords and Lyrics
Major upgrade!! After one year development the new version of Chordie is now online! Please give feedback.


Rainy Day   Oleander

 
 d#----------------------------------------------------------------------------------
 a#----------------------------------------------------------------------------------
 F#----------------------------------------------------------------------------------
 C#-----10-----10-----10-----10-----10------------10-----10-----10-----10-----10-----
 G#---8----8------8------8------8------8--------8----8------8------8------8------8---
 C#-8--------8------8------8------8------8----8--------8------8------8------8------8-
 d#----------------------------------------------------------------------------------
 a#----------------------------------------------------------------------------------
 F#----------------------------------------------------------------------------------
 C#-----7-----7-----5-----5-----5---------10-----10----------------------------------
 G#---5---5-----5-----5-----5-----5-----8----8------8--------------------------------
 C#-5-------5-----5-----5-----5-----5/8--------8------8------------------------------

 


 


 chorus


 


 

 
 d#----------------------------------------------------------------------------------
 a#--------3-------------------------------------------------------------------------
 F#--5-----2-----10---------7--------------------------------------------------------
 C#--3-----0-----10 or 8----5--------------------------------------------------------
 G#--3-----0-----8----------5--------------------------------------------------------
 C#--3-----0-----8----------5--------------------------------------------------------

 


 


 last time of chorus


 


 

 
 d#----------------------------------------------------------------------------------
 a#--------3--------------------------------------------------------------------------
 F#--5-----2-----10-------------------------------------------------------------------
 C#--3-----0-----10-------------------------------------------------------------------
 G#--3-----0-----8--------------------------------------------------------------------
 C#--3-----0-----8--------------------------------------------------------------------

 


 ^ start picking into verse


 


 verse


 


 chorus


 


 Solo (these are just the notes, i'm not putting all the hammers and pulls and slides or repeated notes


 you can figure that stuff out)


 


 

 
 d#----------------------------------------------------------------------------------
 a#--8-10-8-----8-10-8-----8-10-8-----8-10-8-10/11-----11--10--11--10--11-10-11-14-13
 F#---------7----------7----------7--------------------------------------------------
 C#----------------------------------------------------------------------------------
 G#----------------------------------------------------------------------------------
 C#----------------------------------------------------------------------------------
 d#----------------------------------------------------------------------------------
 a#--8-10-8-----8-10-8-----8-10-8-10/11 hold-----------------------------------------
 F#---------7----------7-------------------------------------------------------------
 C#----------------------------------------------------------------------------------
 G#----------------------------------------------------------------------------------
 C#----------------------------------------------------------------------------------


Important: The song above is NOT stored on the Chordie server. The original song is hosted at www.xguitar.com. Chordie works as a search engine and provides on-the-fly formatting. Chordie does not index songs against artists'/composers' will. To remove this song please click here.

This song is displayed as text-only. Transposing and tuning is only available for chordpro-songs.
Rate #1 of 1 versions

Jango Player

Login - add to songbook

SHARE PAGE  




You need to log in to post comments