Guitar Tabs, Chords and Lyrics


Yellin' in My Ear    Operation Ivy



this is the real way to play the intro of this song

----------------------------------------------
----------------------------------------------
----------------------------------------------
-------33-2--------22-----44------------------ x 3
----22-------3---3-----55---------------------
-33------------------------------------------

this is the last part of the intro

-------------------------------------------
-------------------------------------------
-------------------------------------------
--------3- 2--- 2--------------------------
-----2------ 3------5----------------------


Important: The song above is NOT stored on the Chordie server. The original song is hosted at www.xguitar.com. Chordie works as a search engine and provides on-the-fly formatting. Chordie does not index songs against artists/composers will. To remove this song please click here.

This song is displayed as text-only. Transposing and tuning is only available for chordpro-songs.

Login - add to songbook

Rating click stars to rate

Layout
Accuracy

SHARE PAGE  




You need to log in to post comments