Guitar Tabs, Chords and Lyrics


Harvest   Opeth

      0 2 [Em]2 0 0 0          x 0[Asus2] 2 2 0 0          x 2 [Bm]4 4 3 x          x 3 [Cm]5 5 4 3

      x 3[Csus2] 5 5 3 3          4 6 [Ab]6 5 4 4          3 5 [Gm]5 3 3 3          3 5 5[G] 4 3 3

Dmadd9 Amadd9 Abm BmVII
x 5 7 7 6 0 x 0 7 5 0 0 4 6 6 4 4 4 7 9 9 7 7 7

Em(type 2) F# Am Em9
0 2 2 0 0 3 2 4 4 3 2 2 5 7 7 5 5 5 0 5 4 0 0 0

EmV
0 7 5 0 0 0

Gtr I (E A D G B E) - 'Acoustic Guitar 1'
Gtr II (E A D G B E) - 'Acoustic Guitar 2'
Gtr III (E A D G B E) - 'Distorted Guitar'
Gtr IV (E A D G B E) - 'Lead Guitar 1'
Gtr V (E A D G B E) - 'Lead Guitar 2'
Gtr VI (E A D G B E) - 'Lead Guitar 3'

Intro
Q.=63
Em Em9 EmV
6/8
Gtrs I, II
E S S S S E S S S S E S S S S E S S S S
||--0-0-0-0-0-0-0-0-0-0-|-0-0-0-0-0-0-0-0-0-0-|
||o-0-0-0-0-0-0-0-0-0-0-|-0-0-0-0-0-0-0-0-0-0-|
||--0-0-0-0-0-0-0-0-0-0-|-0-0-0-0-0-0-0-0-0-0-|
||--2-2-2-2-2-2-2-2-2-2-|-2-2-2-2-2-4-4-5-5-5-|
||o-2-2-2-2-2-2-2-2-2-2-|-2-2-2-2-2-5-5-7-7-7-|
||--0-0-0-0-0-0-0-0-0-0-|-0-0-0-0-0-0-0-0-0-0-|



Em Em9 EmV
E S S S S E S S S S E S S S S E S S S S
|-0-0-0-0-0-0-0-0-0-0-|-0-0-0-0-0-0-0-0-0-0---||
|-0-0-0-0-0-0-0-0-0-0-|-0-0-0-0-0-0-0-0-0-0--o||
|-0-0-0-0-0-0-0-0-0-0-|-0-0-0-0-0-0-0-0-0-0---||
|-2-2-2-2-2-2-2-2-2-2-|-2-2-2-2-2-4-4-5-5-5---||
|-2-2-2-2-2-2-2-2-2-2-|-2-2-2-2-2-5-5-7-7-7--o||
|-0-0-0-0-0-0-0-0-0-0-|-0-0-0-0-0-0-0-0-0-0---||



    [Em]Gtr I
E S S S S E S S S S
| | | | | | | | | |
Gtr II
S S S E S S S S E S
||---0---0--0--0---0--0--0--0--0---0-|
||o--0---0--0--0---0--0--0--0--0---0-|
||--16--16-16-16-----14-14-14-14-----|
||---x---x--x--x------x--x--x--x-----|
||o-14--14-14-14-----12-12-12-12-----|
||-----------------------------------|

|
| Gtr III
| H.
||-----------------------------------|
||o----------------------------------|
||---9-------------------------------|
||-----------------------------------|
||o----------------------------------|
||-----------------------------------|



Em9 EmV Em
E S S S S E S S S S E S S S S E S S S S
| | | | | | | | | | | | | | | | | | | |
S S S E S S S S E S S S S E S S S S E S
|--0---0--0--0---0--0---0--0--0---0-|--0---0--0--0---0--0---0--0--0---0-|
|--0---0--0--0---0--0---0--0--0---0-|--0---0--0--0---0--0---0--0--0---0-|
|-12--12-12-12-----11--11-11-11-----|-12--12-12-12-----11--11-11-11-----|
|--x---x--x--x------x---x--x--x-----|--x---x--x--x------x---x--x--x-----|
|-10--10-10-10------9---9--9--9-----|-10--10-10-10------9---9--9--9-----|
|-----------------------------------|-----------------------------------|

|
| +Q. Q. Q. Q.
|-----------------------------------|-----------------------------------|
|------------------10---------------|-12--------------------------------|
|-(9)-------------------------------|------------------11---------------|
|-----------------------------------|-----------------------------------|
|-----------------------------------|-----------------------------------|
|-----------------------------------|-----------------------------------|



Em9 EmV Em
E S S S S E S S S S E S S S S E S S S S
| | | | | | | | | | | | | | | | | | | |
S S S E S S S S E S S S S E S S S S E S
|---0--0-0-0---0-0-0-0-0---0-|--0---0--0--0---0--0--0--0--0---0-|
|---0--0-0-0---0-0-0-0-0---0-|--0---0--0--0---0--0--0--0--0---0-|
|---9--9-9-9-----9-9-9-9-----|-16--16-16-16-----14-14-14-14-----|
|---x--x-x-x-----x-x-x-x-----|--x---x--x--x------x--x--x--x-----|
|---7--7-7-7-----7-7-7-7-----|-14--14-14-14-----12-12-12-12-----|
|----------------------------|----------------------------------|

|
| +H. H.
|----------------------------|----------------------------------|
|----------------------------|----------------------------------|
|-(11)-----------------------|--9-------------------------------|
|----------------------------|----------------------------------|
|----------------------------|----------------------------------|
|----------------------------|----------------------------------|



Em9 EmV
E S S S S E S S S S
| | | | | | | | | |
S S S E S S S S E S
|--0---0--0--0---0--0---0--0--0---0--|
|--0---0--0--0---0--0---0--0--0---0--|
|-12--12-12-12-----11--11-11-11------|
|--x---x--x--x------x---x--x--x------|
|-10--10-10-10------9---9--9--9------|
|------------------------------------|

|
| +Q. Q.
|------------------------------------|
|------------------10----------------|
|-(9)--------------------------------|
|------------------------------------|
|------------------------------------|
|------------------------------------|



  [Em] E     S  S  S S  E      S  S S S
| | | | | | | | | |
S S S E S S S S E S
|--0--0--0--0----0--0---0--0--0---0-|
|--0--0--0--0----0--0---0--0--0---0-|
|-12-12-12-12------11--11-11-11-----|
|--x--x--x--x-------x---x--x--x-----|
|-10-10-10-10-------9---9--9--9-----|
|-----------------------------------|

|
| Q E Q.
|-------------10--------------------|
|-12--------------------------------|
|------------------11---------------|
|-----------------------------------|
|-----------------------------------|
|-----------------------------------|



Em9 EmV Asus2 Bm
3/8
E S S S S E S S S S e S e S
| | | | | | | | | | | |
S S S E S S S S E S e S e S
|---0--0-0-0---0-0-0-0-0---0--||-0-------------||
|---0--0-0-0---0-0-0-0-0---0-o||-0-----3-------||
|---9--9-9-9-----9-9-9-9------||-2-----4-------||
|---x--x-x-x-----x-x-x-x------||-2-----4-------||
|---7--7-7-7-----7-7-7-7-----o||-0-----2-------||
|-----------------------------||---------------||

|
| +H. S S S S +S S
|-----------------------------||---------------||
|----------------------------o||-5-3---3-(3)---||
|-(11)------------------------||---------------||
|-----------------------------||-----4-------5-||
|----------------------------o||---------------||
|-----------------------------||---------------||



6[Em]/8                                 [AsusBm]
Gtrs I, II
E S S S S E S S S S E S S S S e S e S
|-0--0-0-0-0-0-0-0-0-0-|--0--0-0-0-0-0-------|
|-0--0-0-0-0-0-0-0-0-0-|--0--0-0-0-0-0---3---|
|-0--0-0-0-0-0-0-0-0-0-|--0--0-0-0-0-2---4---|
|-2--2-2-2-2-2-2-2-2-2-|--2--2-2-2-2-2---4---|
|-2--2-2-2-2-2-2-2-2-2-|--2--2-2-2-2-0---2---|
|-0--0-0-0-0-0-0-0-0-0-|--0--0-0-0-0---------|

|
| >
| ~~~
| H. +H.
|----------------------|---------------------|
|----------------------|---------------------|
|----------------------|---------------------|
|-4--------------------|-(4)-----------------|
|----------------------|---------------------|
|----------------------|---------------------|



    [Em]E S S S S E S S S S   E S S S S [AsusBm]e S e S   3x
||--0-0-0-0-0-0-0-0-0-0-|-0-0-0-0-0-0---------||
||o-0-0-0-0-0-0-0-0-0-0-|-0-0-0-0-0-0---3----o||
||--0-0-0-0-0-0-0-0-0-0-|-0-0-0-0-0-2---4-----||
||--2-2-2-2-2-2-2-2-2-2-|-2-2-2-2-2-2---4-----||
||o-2-2-2-2-2-2-2-2-2-2-|-2-2-2-2-2-0---2----o||
||--0-0-0-0-0-0-0-0-0-0-|-0-0-0-0-0-----------||

|
| W W 3x
||----------------------|---------------------||
||o---------------------|--------------------o||
||----------------------|---------------------||
||----------------------|---------------------||
||o---------------------|--------------------o||
||----------------------|---------------------||



Verse
$
    [Cm]E S S S S E S S S S   [Csus2]E S S S S [Ab]E S S S S
||--3-3-3-3-3-3-3-3-3-3-|-3-3-3-3-3-4-4-4-4-4-|
||o-4-4-4-4-4-4-4-4-4-4-|-3-3-3-3-3-4-4-4-4-4-|
||--5-5-5-5-5-5-5-5-5-5-|-5-5-5-5-5-5-5-5-5-5-|
||--5-5-5-5-5-5-5-5-5-5-|-5-5-5-5-5-6-6-6-6-6-|
||o-3-3-3-3-3-3-3-3-3-3-|-3-3-3-3-3-6-6-6-6-6-|
||----------------------|-----------4-4-4-4-4-|



  [Gm]E S S S S E S S S S   S [G] S  S S S S E S S S S   4x
|-3-3-3-3-3-3-3-3-3-3-|-3-(3)-3-3-3-3-3-3-3-3-3---||
|-3-3-3-3-3-3-3-3-3-3-|-3-(3)-3-3-3-3-3-3-3-3-3--o||
|-3-3-3-3-3-3-3-3-3-3-|-3h=4--4-4-4-4-4-4-4-4-4---||
|-5-5-5-5-5-5-5-5-5-5-|-5-(5)-5-5-5-5-5-5-5-5-5---||
|-5-5-5-5-5-5-5-5-5-5-|-5-(5)-5-5-5-5-5-5-5-5-5--o||
|-3-3-3-3-3-3-3-3-3-3-|-3-(3)-3-3-3-3-3-3-3-3-3---||



Chorus
$$
  [Amadd9] E   S  S  S  S  E  S  S  S  S    E  S  S  S  S  E  S  S  S  S
|--0---0--0--0--0--0--0--0--0--0-|--0--0--0--0--0--0--0--0--0--0-|
|--0---0--0--0--0--0--0--0--0--0-|--0--0--0--0--0--0--0--0--0--0-|
|--9---9--9--9--9--9--9--9--9--9-|--9--9--9--9--9--9--9--9--9--9-|
|-10--10-10-10-10-10-10-10-10-10-|-10-10-10-10-10-10-10-10-10-10-|
|--0---0--0--0--0--0--0--0--0--0-|--0--0--0--0--0--0--0--0--0--0-|
|--------------------------------|-------------------------------|

|
| Gtr III
| < < < < < <
| H. e e e e e e
|--------------------------------|-------------------------------|
|-^0-----------------------------|--0--0-----0-----0--0-----0----|
|-^5-----------------------------|--5--5-----5-----5--5-----5----|
|-^7-----------------------------|--7--7-----7-----7--7-----7----|
|-^0-----------------------------|--0--0-----0-----0--0-----0----|
|--------------------------------|-------------------------------|



  [Em] E  S  S  S  S  E  S  S  S  S    E  S  S  S  S  E  S  S  S  S
|--0--0--0--0--0--0--0--0--0--0-|--0--0--0--0--0--0--0--0--0--0--|
|--0--0--0--0--0--0--0--0--0--0-|--0--0--0--0--0--0--0--0--0--0--|
|-12-12-12-12-12-12-12-12-12-12-|-12-12-12-12-12-12-12-12-12-12--|
|--x--x--x--x--x--x--x--x--x--x-|--x--x--x--x--x--x--x--x--x--x--|
|-10-10-10-10-10-10-10-10-10-10-|-10-10-10-10-10-10-10-10-10-10--|
|--0--0--0--0--0--0--0--0--0--0-|--0--0--0--0--0--0--0--0--0--0--|

|
| < < < < < < < < < < < <
| e e e e e e e e e e e e
|-------------------------------|--------------------------------|
|--0--0-----0-----0--0-----0----|--0--0-----0-----0--0-----0-----|
|--0--0-----0-----0--0-----0----|--0--0-----0-----0--0-----0-----|
|--2--2-----2-----2--2-----2----|--2--2-----2-----2--2-----2-----|
|--2--2-----2-----2--2-----2----|--2--2-----2-----2--2-----2-----|
|--0--0-----0-----0--0-----0----|--0--0-----0-----0--0-----0-----|



  [Bm]E S S S S E S S S S   [G]E S S S S E S S S S
|-7-7-7-7-7-7-7-7-7-7-|-3-3-3-3-3-3-3-3-3-3-|
|-7-7-7-7-7-7-7-7-7-7-|-3-3-3-3-3-3-3-3-3-3-|
|-7-7-7-7-7-7-7-7-7-7-|-4-4-4-4-4-4-4-4-4-4-|
|-9-9-9-9-9-9-9-9-9-9-|-5-5-5-5-5-5-5-5-5-5-|
|-9-9-9-9-9-9-9-9-9-9-|-5-5-5-5-5-5-5-5-5-5-|
|-7-7-7-7-7-7-7-7-7-7-|-3-3-3-3-3-3-3-3-3-3-|



  [F#]E S S S S [F#/A#]E S S S S   [F#]E S S S S E S S S S
|---------------------|-2-2-2-2-2-2-2-2-2-2--|
|-----------2-2-2-2-2-|-2-2-2-2-2-2-2-2-2-2--|
|-3-3-3-3-3-3-3-3-3-3-|-3-3-3-3-3-3-3-3-3-3--|
|-4-4-4-4-4-4-4-4-4-4-|-4-4-4-4-4-4-4-4-4-4--|
|-4-4-4-4-4-1-1-1-1-1-|-4-4-4-4-4-4-4-4-4-4--|
|-2-2-2-2-2-----------|-2-2-2-2-2-2-2-2-2-2--|



  [Amadd9] E   S  S  S  S  E  S  S  S  S    E  S  S  S  S  E  S  S  S  S
|--0---0--0--0--0--0--0--0--0--0-|--0--0--0--0--0--0--0--0--0--0-|
|--0---0--0--0--0--0--0--0--0--0-|--0--0--0--0--0--0--0--0--0--0-|
|--9---9--9--9--9--9--9--9--9--9-|--9--9--9--9--9--9--9--9--9--9-|
|-10--10-10-10-10-10-10-10-10-10-|-10-10-10-10-10-10-10-10-10-10-|
|--0---0--0--0--0--0--0--0--0--0-|--0--0--0--0--0--0--0--0--0--0-|
|--------------------------------|-------------------------------|

|
| Gtr III
| < < < < < <
| H. e e e e e e
|--------------------------------|-------------------------------|
|-^0-----------------------------|--0--0-----0-----0--0-----0----|
|-^5-----------------------------|--5--5-----5-----5--5-----5----|
|-^7-----------------------------|--7--7-----7-----7--7-----7----|
|-^0-----------------------------|--0--0-----0-----0--0-----0----|
|--------------------------------|-------------------------------|



  [Em] E  S  S  S  S  E  S  S  S  S    E  S  S  S  S  E  S  S  S  S
|--0--0--0--0--0--0--0--0--0--0-|--0--0--0--0--0--0--0--0--0--0--|
|--0--0--0--0--0--0--0--0--0--0-|--0--0--0--0--0--0--0--0--0--0--|
|-12-12-12-12-12-12-12-12-12-12-|-12-12-12-12-12-12-12-12-12-12--|
|--x--x--x--x--x--x--x--x--x--x-|--x--x--x--x--x--x--x--x--x--x--|
|-10-10-10-10-10-10-10-10-10-10-|-10-10-10-10-10-10-10-10-10-10--|
|--0--0--0--0--0--0--0--0--0--0-|--0--0--0--0--0--0--0--0--0--0--|

|
| < < < < < < < < < < < <
| e e e e e e e e e e e e
|-------------------------------|--------------------------------|
|--0--0-----0-----0--0-----0----|--0--0-----0-----0--0-----0-----|
|--0--0-----0-----0--0-----0----|--0--0-----0-----0--0-----0-----|
|--2--2-----2-----2--2-----2----|--2--2-----2-----2--2-----2-----|
|--2--2-----2-----2--2-----2----|--2--2-----2-----2--2-----2-----|
|--0--0-----0-----0--0-----0----|--0--0-----0-----0--0-----0-----|



To Coda
To Coda
  [Bm]E S S S S E S S S S   [Dm]E S S S S E S S S S   [Am]E S S S S E S S S S
|-7-7-7-7-7-7-7-7-7-7-|-5-5-5-5-5-5-5-5-5-5-|-5-5-5-5-5-5-5-5-5-5--||
|-7-7-7-7-7-7-7-7-7-7-|-6-6-6-6-6-6-6-6-6-6-|-5-5-5-5-5-5-5-5-5-5--||
|-7-7-7-7-7-7-7-7-7-7-|-7-7-7-7-7-7-7-7-7-7-|-5-5-5-5-5-5-5-5-5-5--||
|-9-9-9-9-9-9-9-9-9-9-|-7-7-7-7-7-7-7-7-7-7-|-7-7-7-7-7-7-7-7-7-7--||
|-9-9-9-9-9-9-9-9-9-9-|-5-5-5-5-5-5-5-5-5-5-|-7-7-7-7-7-7-7-7-7-7--||
|-7-7-7-7-7-7-7-7-7-7-|---------------------|-5-5-5-5-5-5-5-5-5-5--||

|
| < < < < < < < < < < < < < < < < < <
| e e e e e e e e e e e e e e e e e e
|---------------------|---------------------|----------------------||
|-3-3---3---3-3---3---|-6-6---6---6-6---6---|----------------------||
|-4-4---4---4-4---4---|-7-7---7---7-7---7---|-5-5---5---5-5---5----||
|-4-4---4---4-4---4---|-7-7---7---7-7---7---|-7-7---7---7-7---7----||
|-2-2---2---2-2---2---|-5-5---5---5-5---5---|-7-7---7---7-7---7----||
|---------------------|---------------------|-5-5---5---5-5---5----||



D.S. al Coda
  [Ab]H.        E S S S S E S S S S   [Cm]E S S S S E S S S S   [Gm]E S S S S E S S S S
|-4-------|-4-4-4-4-4-4-4-4-4-4-|-3-3-3-3-3-3-3-3-3-3-|-3-3-3-3-3-3-3-3-3-3--||
|-4-------|-4-4-4-4-4-4-4-4-4-4-|-4-4-4-4-4-4-4-4-4-4-|-3-3-3-3-3-3-3-3-3-3--||
|-5-------|-5-5-5-5-5-5-5-5-5-5-|-5-5-5-5-5-5-5-5-5-5-|-3-3-3-3-3-3-3-3-3-3--||
|-6-------|-6-6-6-6-6-6-6-6-6-6-|-5-5-5-5-5-5-5-5-5-5-|-5-5-5-5-5-5-5-5-5-5--||
|-6-------|-6-6-6-6-6-6-6-6-6-6-|-3-3-3-3-3-3-3-3-3-3-|-5-5-5-5-5-5-5-5-5-5--||
|-4-------|-4-4-4-4-4-4-4-4-4-4-|---------------------|-3-3-3-3-3-3-3-3-3-3--||



Instrumental Break
&
  [Ab]Gtrs I, II             [Dmadd9]
H. +H. E S S S S E S S S S
| | | | | | | | | | | |
Gtr IV
~~~~~~~~~~~~~~~
W W Q. +E E E
|---------|----------||--------------------------|
|---------|----------||o-------------------------|
|---------|----------||--7----------(7)-9---10---|
|---------|----------||--------------------------|
|---------|----------||o-------------------------|
|---------|----------||--------------------------|



  [Amadd9]E     S S S S  E  S S S S
| | | | | | | | | |
~~~~~~~~
S +S E E +E E E
|---------------------------|
|---------------------------|
|-9-(9)s7---5---(5)-7h==9---|
|---------------------------|
|---------------------------|
|---------------------------|



Abm BmVII Gm
E S S S S E S S S S E S S S S E S S S S
| | | | | | | | | | | | | | | | | | | |
~~~~~~~~~~~~~~~~~~~~~~~~~~~ ~~
Q. Q. Q +E Q.
|------------------------|--------------------------||
|------------------------|-------------------------o||
|-8----------------------|--------------------------||
|------------/9----------|-8-----(8)s==5------------||
|------------------------|-------------------------o||
|------------------------|--------------------------||



    [Dmadd9]E  S S S S  E  S  S   S S   [Amadd9]E     S S S S  E  S S S S
| | | | | | | | | | | | | | | | | | | |
~~~~~~~~~~~~~~~ ~~~~~~~~
Q. +E E E S +S E E +E E E
||----------------------------|---------------------------|
||o---------------------------|---------------------------|
||--7----------(7)-9-----10---|-9-(9)s7---5---(5)-7h==9---|
||----------------------------|---------------------------|
||o---------------------------|---------------------------|
||----------------------------|---------------------------|

|
| Gtr V
| ~~~~~~~~~~~~~~~ ~~~~~~~~
| Q. +E S +S E S +S E E +E E E
||----------------------------|---------------------------|
||o-6----------(6)-8-(8)s10---|-8-(8)s6---5---(5)-6---8---|
||----------------------------|---------------------------|
||----------------------------|---------------------------|
||o---------------------------|---------------------------|
||----------------------------|---------------------------|



Abm BmVII Gm
E S S S S E S S S S E S S S S E S S S S
| | | | | | | | | | | | | | | | | | | |
~~~~~~~~~~~~~~~~~~~~~~~~~~~ ~~
Q. Q. Q +E Q.
|--------------------------|-------------------------||
|--------------------------|------------------------o||
|---8----------------------|-------------------------||
|--------------/9----------|-8-----(8)s==5-----------||
|--------------------------|------------------------o||
|--------------------------|-------------------------||

|
| ~~~~~~~~~~~~~~~~~~~~~~~~~~~ ~~
| a Q. Q. Q +E Q.
|--------------------------|-------------------------||
|-8s9-----------7----------|-8-----(8)s==3----------o||
|--------------------------|-------------------------||
|--------------------------|-------------------------||
|--------------------------|------------------------o||
|--------------------------|-------------------------||



Guitar Solo
  [Dmadd9]E  S S S S E S  S     S  S   [Amadd9] E  S    S     S    S      E           S S   S  S
| | | | | | | | | | | | | | | | | | | |
~~
H. W
|----------------------------|---------------------------------------------------|
|----------------------------|---------------------------------------------------|
|-7--------------------------|---------------------------------------------------|
|----------------------------|---------------------------------------------------|
|----------------------------|---------------------------------------------------|
|----------------------------|---------------------------------------------------|

|
| Gtr VI
|                                  |---3---|  |---3---|

| Q. E S. T S S e S S S S S S +S +E. +E
|----------------------10-12-|-13-12h13p==12-10-12---10-(10)b12==(10)-----(10)r==|
|-------------------10-------|---------------------------------------------------|
|----------------------------|---------------------------------------------------|
|----------------------------|---------------------------------------------------|
|----------------------------|---------------------------------------------------|
|----------------------------|---------------------------------------------------|



Abm BmVII Gm
E S S S S E S S S S E S S S S E S S S S
| | | | | | | | | | | | | | | | | | | |
W W
|-------------------------------------|---------------------------|
|-------------------------------------|---------------------------|
|-------------------------------------|---------------------------|
|-------------------------------------|---------------------------|
|-------------------------------------|---------------------------|
|-------------------------------------|---------------------------|

|
| ~~~~~~~~~~~~~~~
| 2:3| |2:3-|
| a E. S S S S S S S S S +Q Q.
|-10h11----10-------------------------|---------------------------|
|-------------12------------12--------|---------------------------|
|----------------11----11--------12---|-12s7-(7)------------------|
|-------------------12----------------|----------------8----------|
|-------------------------------------|---------------------------|
|-------------------------------------|---------------------------|



  [Dmadd9]E S S  S S  E  S S S S   [Amadd9] E   S   S  S  S E S S  S S
| | | | | | | | | | | | | | | | | | | |
Gtr VI
e S E. +Q. +E S E S E E E
|------------------------|-----------------------------|
|------------------------|-----------------------------|
|------------------------|---------(5)------7-9---10---|
|-7-5h7------(7)---------|-(7)-(7)-------/7------------|
|------------------------|-----------------------------|
|------------------------|-----------------------------|



Abm BmVII Gm
E S S S S E S S S S E S S S S E S S S S
| | | | | | | | | | | | | | | | | | | |
~~
Q. a E. E. +E S e S +S S S S E
|--------------------------|----------------------------|
|--------------------------|----------------------------|
|-8----------7h8----7------|-(7)---8---7-(7)s5-5h7------|
|--------------------------|-----8-----------------7----|
|--------------------------|----------------------------|
|--------------------------|----------------------------|



  [Dmadd9] E  S S S S  E  S S  S S   [Amadd9]E     S S S S  E    S  S S S
| | | | | | | | | | | | | | | | | | | |
~~~~~~~~~~~~~
+Q. +E S S S S S S s S S S S S +Q
|--------------------------|---------7h8-7----------------|
|---------------------10---|-8h10-10-------10-------------|
|-------------------9----9-|------------------9-(9)-------|
|-(7)---------(7)-7--------|------------------------------|
|--------------------------|------------------------------|
|--------------------------|------------------------------|



Abm BmVII Gm
E S S S S E S S S S E S S S S E S S S S
| | | | | | | | | | | | | | | | | | | |
~~~~ ~~~~
Q. a E. S S S S e E S S S +Q
|-------------------------|------------------------------|
|-------------------------|------------------------------|
|-8----------7h8----7-5---|------------------------------|
|-----------------------5-|------------------------------|
|-------------------------|-5-3--------------------------|
|-------------------------|-------6---5-6s17-(17)--------|



  [Dmadd9]E  S S  S S E      S  S S S   [Amadd9]  E     S  S  S     S       E          S   S      S   S
| | | | | | | | | | | | | | | | | | | |
~~~~~~~
                                              |----3----|   |---3---|

E. S S S S S +Q +E S S E S S +S S S +E +S
|-----------------------------|------------------------15--------------------------------|
|--------10---8h10-(10)-------|-(10)\-----13-15b17====(15)-15r(15)p13-15-(15)b17====(15)r|
|------9----9-----------------|-------/14------------------------------------------------|
|-----------------------------|----------------------------------------------------------|
|-----------------------------|----------------------------------------------------------|
|-----------------------------|----------------------------------------------------------|



Abm BmVII Gm
E S S S S E S S S S E S S S S E S S S S
| | | | | | | | | | | | | | | | | | | |
~~ ~~~
                  |---3---|

Q E e S S S E H.
|--------------------------------|-----------------------||
|--------11---12-11h12p==11------|-----------------------||
|-13------------------------13---|-----------------------||
|--------------------------------|-12--------------------||
|--------------------------------|-----------------------||
|--------------------------------|-----------------------||



Verse
  [Cm]Gtrs I, II              [Csus2]             [Ab]
E S S S S E S S S S E S S S S E S S S S
|--3--3-3-3-3-3-3-3-3-3-|---3--3-3-3-3-4-4-4-4-4-|
|--4--4-4-4-4-4-4-4-4-4-|---3--3-3-3-3-4-4-4-4-4-|
|--5--5-5-5-5-5-5-5-5-5-|---5--5-5-5-5-5-5-5-5-5-|
|--5--5-5-5-5-5-5-5-5-5-|---5--5-5-5-5-6-6-6-6-6-|
|--3--3-3-3-3-3-3-3-3-3-|---3--3-3-3-3-6-6-6-6-6-|
|-----------------------|--------------4-4-4-4-4-|

|
| Gtr VI
| H. +H.
|-----------------------|------------------------|
|-----------------------|------------------------|
|-----------------------|------------------------|
|-10--------------------|-(10)-------------------|
|-----------------------|------------------------|
|-----------------------|------------------------|



  [Gm]E S S S S E S S S S   S [G] S  S S S S E S S S S
|-3-3-3-3-3-3-3-3-3-3-|-3-(3)-3-3-3-3-3-3-3-3-3---|
|-3-3-3-3-3-3-3-3-3-3-|-3-(3)-3-3-3-3-3-3-3-3-3---|
|-3-3-3-3-3-3-3-3-3-3-|-3h=4--4-4-4-4-4-4-4-4-4---|
|-5-5-5-5-5-5-5-5-5-5-|-5-(5)-5-5-5-5-5-5-5-5-5---|
|-5-5-5-5-5-5-5-5-5-5-|-5-(5)-5-5-5-5-5-5-5-5-5---|
|-3-3-3-3-3-3-3-3-3-3-|-3-(3)-3-3-3-3-3-3-3-3-3---|

|
| W W
|---------------------|---------------------------|
|---------------------|---------------------------|
|---------------------|---------------------------|
|---------------------|---------------------------|
|---------------------|---------------------------|
|---------------------|---------------------------|



    [Cm]E S S S S E S S S S   [Csus2]E S S S S [Ab]E S S S S
||--3-3-3-3-3-3-3-3-3-3-|-3-3-3-3-3-4-4-4-4-4-|
||o-4-4-4-4-4-4-4-4-4-4-|-3-3-3-3-3-4-4-4-4-4-|
||--5-5-5-5-5-5-5-5-5-5-|-5-5-5-5-5-5-5-5-5-5-|
||--5-5-5-5-5-5-5-5-5-5-|-5-5-5-5-5-6-6-6-6-6-|
||o-3-3-3-3-3-3-3-3-3-3-|-3-3-3-3-3-6-6-6-6-6-|
||----------------------|-----------4-4-4-4-4-|



D.S.S. al Dbl. Coda
  [Gm]E S S S S E S S S S   S [G] S  S S S S E S S S S   3x
|-3-3-3-3-3-3-3-3-3-3-|-3-(3)-3-3-3-3-3-3-3-3-3---||
|-3-3-3-3-3-3-3-3-3-3-|-3-(3)-3-3-3-3-3-3-3-3-3--o||
|-3-3-3-3-3-3-3-3-3-3-|-3h=4--4-4-4-4-4-4-4-4-4---||
|-5-5-5-5-5-5-5-5-5-5-|-5-(5)-5-5-5-5-5-5-5-5-5---||
|-5-5-5-5-5-5-5-5-5-5-|-5-(5)-5-5-5-5-5-5-5-5-5--o||
|-3-3-3-3-3-3-3-3-3-3-|-3-(3)-3-3-3-3-3-3-3-3-3---||



&&
  [Ab]H.        E S S S S E S S S S   [Cm]E S S S S E S S S S   [Gm]E e E S [G]e e S
|-4-------|-4-4-4-4-4-4-4-4-4-4-|-3-3-3-3-3-3-3-3-3-3-|-3-3-----3-3-3-||
|-4-------|-4-4-4-4-4-4-4-4-4-4-|-4-4-4-4-4-4-4-4-4-4-|-3-3-----3-3-3-||
|-5-------|-5-5-5-5-5-5-5-5-5-5-|-5-5-5-5-5-5-5-5-5-5-|-3-3-----4-4-4-||
|-6-------|-6-6-6-6-6-6-6-6-6-6-|-5-5-5-5-5-5-5-5-5-5-|-5-5-----5-5-5-||
|-6-------|-6-6-6-6-6-6-6-6-6-6-|-3-3-3-3-3-3-3-3-3-3-|-5-5-----5-5-5-||
|-4-------|-4-4-4-4-4-4-4-4-4-4-|---------------------|-3-3-----3-3-3-||



Outro
    [Em]Gtr I
E S S S S E S S S S
| | | | | | | | | |
Gtr II
S S S E S S S S E S
||---0---0--0--0---0--0--0--0--0---0-|
||o--0---0--0--0---0--0--0--0--0---0-|
||--16--16-16-16-----14-14-14-14-----|
||---x---x--x--x------x--x--x--x-----|
||o-14--14-14-14-----12-12-12-12-----|
||-----------------------------------|

|
| Gtr III
| H.
||-----------------------------------|
||o----------------------------------|
||---9-------------------------------|
||-----------------------------------|
||o----------------------------------|
||-----------------------------------|



Em9 EmV Em
E S S S S E S S S S E S S S S E S S S S
| | | | | | | | | | | | | | | | | | | |
S S S E S S S S E S S S S E S S S S E S
|--0---0--0--0---0--0---0--0--0---0-|--0---0--0--0---0--0---0--0--0---0-|
|--0---0--0--0---0--0---0--0--0---0-|--0---0--0--0---0--0---0--0--0---0-|
|-12--12-12-12-----11--11-11-11-----|-12--12-12-12-----11--11-11-11-----|
|--x---x--x--x------x---x--x--x-----|--x---x--x--x------x---x--x--x-----|
|-10--10-10-10------9---9--9--9-----|-10--10-10-10------9---9--9--9-----|
|-----------------------------------|-----------------------------------|

|
| +Q. Q. Q. Q.
|-----------------------------------|-----------------------------------|
|------------------10---------------|-12--------------------------------|
|-(9)-------------------------------|------------------11---------------|
|-----------------------------------|-----------------------------------|
|-----------------------------------|-----------------------------------|
|-----------------------------------|-----------------------------------|



Em9 EmV Em
E S S S S E S S S S E S S S S E S S S S
| | | | | | | | | | | | | | | | | | | |
S S S E S S S S E S S S S E S S S S E S
|---0--0-0-0---0-0-0-0-0---0-|--0---0--0--0---0--0--0--0--0---0-|
|---0--0-0-0---0-0-0-0-0---0-|--0---0--0--0---0--0--0--0--0---0-|
|---9--9-9-9-----9-9-9-9-----|-16--16-16-16-----14-14-14-14-----|
|---x--x-x-x-----x-x-x-x-----|--x---x--x--x------x--x--x--x-----|
|---7--7-7-7-----7-7-7-7-----|-14--14-14-14-----12-12-12-12-----|
|----------------------------|----------------------------------|

|
| +H. H.
|----------------------------|----------------------------------|
|----------------------------|----------------------------------|
|-(11)-----------------------|--9-------------------------------|
|----------------------------|----------------------------------|
|----------------------------|----------------------------------|
|----------------------------|----------------------------------|



Em9 EmV
E S S S S E S S S S
| | | | | | | | | |
S S S E S S S S E S
|--0---0--0--0---0--0---0--0--0---0--|
|--0---0--0--0---0--0---0--0--0---0--|
|-12--12-12-12-----11--11-11-11------|
|--x---x--x--x------x---x--x--x------|
|-10--10-10-10------9---9--9--9------|
|------------------------------------|

|
| +Q. Q.
|------------------------------------|
|------------------10----------------|
|-(9)--------------------------------|
|------------------------------------|
|------------------------------------|
|------------------------------------|



Em Em9 EmV Em
E S S S S E S S S S E S S S S E S S S S H.
| | | | | | | | | | | | | | | | | | | | |
S S S E S S S S E S S S S E S S S S E S H.
|--0--0--0--0----0--0---0--0--0---0-|---0--0-0-0---0-0-0-0-0---0--||-0-----*|
|--0--0--0--0----0--0---0--0--0---0-|---0--0-0-0---0-0-0-0-0---0-o||-0-----*|
|-12-12-12-12------11--11-11-11-----|---9--9-9-9-----9-9-9-9------||-9-----*|
|--x--x--x--x-------x---x--x--x-----|---x--x-x-x-----x-x-x-x------||-x-----*|
|-10-10-10-10-------9---9--9--9-----|---7--7-7-7-----7-7-7-7-----o||-7-----*|
|-----------------------------------|-----------------------------||-------*|

|
| Q E Q. +H. W
|-------------10--------------------|-----------------------------||-------*|
|-12--------------------------------|----------------------------o||-------*|
|------------------11---------------|-(11)------------------------||-------*|
|-----------------------------------|-----------------------------||-------*|
|-----------------------------------|----------------------------o||-------*|
|-----------------------------------|-----------------------------||-------*|



Duration Legend
---------------
W - whole; H - half; Q - quarter; E - 8th; S - 16th; T - 32nd; X - 64th; a - acciaccatura

+ - note tied to previous; . - note dotted; .. - note double dotted
Uncapitalized letters represent notes that are staccato (1/2 duration)
Irregular groupings are notated above the duration line
Duration letters will always appear directly above the note/fret number it represents the
duration for. Duration letters with no fret number below them represent rests. Multi-
bar rests are notated in the form Wxn, where n is the number of bars to rest for. Low
melody durations appear below the staff

Tablature Legend
----------------

h - hammer-on
p - pull-off
b - bend
pb - pre-bend
r - bend release (if no number after the r, then release immediately)
/\ - slide into or out of (from/to "nowhere")
s - legato slide
S - shift slide
- natural harmonic
(n) - artificial harmonic
n(n) - tapped harmonic
~ - vibrato
tr - trill
T - tap
TP - trem. picking
PM - palm muting
\n/ - tremolo bar dip; n = amount to dip
\n - tremolo bar down
n/ - tremolo bar up
/n\ - tremolo bar inverted dip
= - hold bend; also acts as connecting device for hammers/pulls
<> - volume swell (louder/softer)
x - on rhythm slash represents muted slash
o - on rhythm slash represents single note slash

Misc Legend
-----------

| - bar
|| - double bar
||o - repeat start
o|| - repeat end
*| - double bar (ending)
: - bar (freetime)
$ - Segno
& - Coda
Tempo markers - = BPM(8/16=s8/s16), where s8 = swing 8ths, s16 = swing 16ths

Important: The song above is NOT stored on the Chordie server. The original song is hosted at www.xguitar.com. Chordie works as a search engine and provides on-the-fly formatting. Chordie does not index songs against artists'/composers' will. To remove this song please click here.

Text color:
Chord color:
Chord grids: 
Font size:    
Page size: 

Ab Am Amadd9 Asus2 Bm Cm Csus2 Dm Dmadd9 Em F# F#/A# G Gm
variations - click chord images

Login - add to songbook

Transpose chords

Tuning

Rating click stars to rate

Layout
Accuracy

SHARE PAGE  




You need to log in to post comments