Guitar Tabs, Chords and Lyrics


In My Time of Need   Opeth

   [4/4] Gtr I
E E E E E E E E +W E E E E E E E E +W
||----------0-------|------------|---------0-------|---------||
||o-------7---7-----|------------|-------7---7-----|--------o||
||------0-------0---|------------|-----0-------0---|---------||
||----7-----------7-|-(7)--------|---7-----------7-|-(7)-----||
||o-----------------|------------|-----------------|--------o||
||--0---------------|------------|-0---------------|---------||



Verses 1&2
$
    [F#m7b9/E]Gtr I                          [F#m7b9/E]
E E E E E E E E +W E E E E E E E E +W
||----------0-------|------------|---------0-------|--------|
||o-------7---7-----|------------|-------7---7-----|--------|
||------0-------0---|------------|-----0-------0---|--------|
||----7-----------7-|-(7)--------|---7-----------7-|-(7)----|
||o-----------------|------------|-----------------|--------|
||--0---------------|------------|-0---------------|--------|



  [F#m7b9/E]E E E E E E E E   +W           [Amadd2]E E E E E [Am9]E E E   W
|---------0-------|------------|---------0---3---|-------||
|-------7---7-----|------------|-----1---------1-|------o||
|-----0-------0---|------------|---4---4---4-----|-4-----||
|---7-----------7-|-(7)--------|-----------------|-------||
|-----------------|------------|-0---------------|------o||
|-0---------------|------------|-----------------|-------||



PreChorus 1&2
  [G#sus4]Gtrs I, II                   [F#sus4]
E E H. +W E E E E +H +W
|--4------------|------------|-2----------------|--------|
|-----4---------|------------|---2--------------|--------|
|-------6-------|-(6)--------|-----4------------|--------|
|-(6)-----------|------------|-------(4)-(4)----|-(4)----|
|---------------|------------|------------------|--------|
|---------------|------------|------------------|--------|



  [E6sus2] E  E H.        +W             [Fsus4]E E E  E  E E E  E    [Fsus4]E E E  E  E E E  E
|--2------------|------------||--1---------1---------|-1---------1----------||
|-----2---------|------------||o---1---------1-------|---1---------1-------o||
|-------4-------|-(4)--------||------3---------3-----|-----3---------3------||
|-(2)-----------|------------||--------(3)-------(3)-|-------(3)-------(3)--||
|---------------|------------||o---------------------|---------------------o||
|---------------|------------||----------------------|----------------------||



Chorus
    [Em]H    Q  E E   +Q   [Em]Q  Q  E E   [Bm]H    Q  E E   +Q   [Bm]Q  Q  E E
||--7----7--7-7-|-(7)--7--7--7-x-|-------------|-----------------|
||o-8----8--8-8-|-(8)--8--8--8-x-|-7----7--7-7-|-(7)--7--7--7-x--|
||--9----9--9-9-|-(9)--9--9--9-x-|-7----7--7-7-|-(7)--7--7--7-x--|
||--9----9--9-9-|-(9)--9--9--9-x-|-9----9--9-9-|-(9)--9--9--9-x--|
||o-7----7--7-7-|-(7)--7--7--7-x-|-9----9--9-9-|-(9)--9--9--9-x--|
||--------------|----------------|-7----7--7-7-|-(7)--7--7--7-x--|



D.S.
  [Am]H    Q  E E   +Q   [Am]Q  Q  E E   [Gmaj7/E]Q.   E E E [C]Q    +E  [Gmaj7/E]E Q  Q  Q
|-------------|----------------|---------------|-----------------||
|-5----5--5-5-|-(5)--5--5--5-x-|---------------|----------------o||
|-5----5--5-5-|-(5)--5--5--5-x-|-0----0-0-0-0--|-(0)-0-0--0--0---||
|-7----7--7-7-|-(7)--7--7--7-x-|-4----4-4-x-4--|-(4)-4-4--4--4---||
|-7----7--7-7-|-(7)--7--7--7-x-|-2----2-2-x-x--|-(x)-2-2--2--2--o||
|-5----5--5-5-|-(5)--5--5--5-x-|-0----0-0-0-2--|-(2)-0-0--0--0---||



Bridge
    [Asus2]Q.   E E E [Asus2/Bb]Q    +E  [Asus2/Bb]E Q  Q  E [AsusAsus2]E   Q.   E E E [Asus2/Bb]Q    +E  [Asus2/Bb]E Q  Q  E [Asus2]E
||--0----0-0-0-0--|-(0)-0-0--0--0-0-|-0----0-0-0-0--|-(0)-0-0--0--0-0--|
||o-0----0-0-0-0--|-(0)-0-0--0--0-0-|-0----0-0-0-0--|-(0)-0-0--0--0-0--|
||--2----2-2-x-2--|-(2)-2-2--2--2-2-|-2----2-2-x-2--|-(2)-2-2--2--2-2--|
||--2----2-2-x-2--|-(2)-2-2--2--2-2-|-2----2-2-x-2--|-(2)-2-2--2--2-2--|
||o-0----0-0-0-1--|-(1)-1-1--1--1-0-|-0----0-0-0-1--|-(1)-1-1--1--1-0--|
||----------------|-----------------|---------------|------------------|



  [Asus2]Q.   E E E [Asus2/Bb]Q    +E  [Asus2/Bb]E Q  Q  E [AsusBsus4]E   Q  E E E E [Cmaj7]Q    +E  [Cmaj7]E Q  Q  E E
|-0----0-0-0-0--|-(0)-0-0--0--0-0-|-0--0-0-0-0-0--|-(0)-0-0--0--0-0--||
|-0----0-0-0-0--|-(0)-0-0--0--0-0-|-0--0-0-0-0-0--|-(0)-0-0--0--0-0-o||
|-2----2-2-x-2--|-(2)-2-2--2--2-2-|-4--4-4-4-x-5--|-(5)-5-5--5--5-x--||
|-2----2-2-x-2--|-(2)-2-2--2--2-2-|-4--4-4-4-x-5--|-(5)-5-5--5--5-x--||
|-0----0-0-0-1--|-(1)-1-1--1--1-0-|-2--2-2-2-x-3--|-(3)-3-3--3--3-x-o||
|---------------|-----------------|---------------|------------------||



Interlude
  [F#m7b9/E]Gtr I
E E E E E E E E +W
|-----------0--------|--------------------|
|---------7---7------|--------------------|
|-------0-------0----|--------------------|
|-----7------------7-|--(7)---------------|
|--------------------|--------------------|
|-0------------------|--------------------|

|
| Gtr III
| ~~~~~~~
| H.. E +H +H
|--------------------|--------------------|
|--------------------|--------------------|
|-----------------14-|-(14)b15----(14)----|
|--------------------|--------------------|
|--------------------|--------------------|
|--------------------|--------------------|

|
| Gtr IV
| ~~~~~~~
| H.. E +H +H
|--------------------|--------------------|
|--------------------|--------------------|
|--------------------|--------------------|
|-----------------14-|-(14)b15----(14)----|
|--------------------|--------------------|
|--------------------|--------------------|



  [F#m7b9/E]  E  E E E E E E E   +W
|------------0-------|-------------------|
|----------7---7-----|-------------------|
|--------0-------0---|-------------------|
|------7-----------7-|-(7)---------------|
|--------------------|-------------------|
|---0----------------|-------------------|

|
|~~~~~~~~~~~~~~~~~~~~~~~~~~~~~~~~~~~~~
| +W H +H
|--------------------|-11b12=====(11)----|
|--------------------|-------------------|
|-(14)---------------|-------------------|
|--------------------|-------------------|
|--------------------|-------------------|
|--------------------|-------------------|

|
|~~~~~~~~~~~~~~~~~~~~~~~~~~~~~~~~~~~~~
| +W H +H
|--------------------|-------------------|
|--------------------|-11b12=====(11)----|
|--------------------|-------------------|
|-(14)---------------|-------------------|
|--------------------|-------------------|
|--------------------|-------------------|



  [F#m7b9/E]  E   E E E E E E E   +W
|-------------0-------|------------|
|-----------7---7-----|------------|
|---------0-------0---|------------|
|-------7-----------7-|-(7)--------|
|---------------------|------------|
|---0-----------------|------------|

|
| >
| ~~~~~
| +W W
|-(11)r---------------|------------|
|---------------------|------------|
|---------------------|------------|
|---------------------|------------|
|---------------------|------------|
|---------------------|------------|

|
| >
| ~~~~~
| +W W
|---------------------|------------|
|-(11)r---------------|------------|
|---------------------|------------|
|---------------------|------------|
|---------------------|------------|
|---------------------|------------|



  [Amadd2] E    E    E  E   E    [Am9]E   E  E     W
|-------------------0--------3----|------------------|
|------------1------------------1-|------------------|
|-------4-------4--------4--------|---4--------------|
|---------------------------------|------------------|
|--0------------------------------|------------------|
|---------------------------------|------------------|

|
| E. S E E Q +Q +H. E E
|---------------------------------|------------------|
|---------9h10-12--12b13---(12)---|-(12)-------12-10-|
|---------------------------------|------------------|
|---------------------------------|------------------|
|---------------------------------|------------------|
|---------------------------------|------------------|

|
| H +H +H.. E
|---------------------------------|------------------|
|---------------------------------|------------------|
|---------------------------------|------------------|
|-16b17-----------(16)------------|-(16)----------16-|
|---------------------------------|------------------|
|---------------------------------|------------------|



     [F#m7b9/E] E E E E E E E E    +W
|-------------0-------|-------------|
|-----------7---7-----|-------------|
|---------0-------0---|-------------|
|-------7-----------7-|--(7)--------|
|---------------------|-------------|
|-----0---------------|-------------|

|
| a W +W
|---------------------|-------------|
|-10s12---------------|-(12)--------|
|---------------------|-------------|
|---------------------|-------------|
|---------------------|-------------|
|---------------------|-------------|

|
| a W +W
|---------------------|-------------|
|---------------------|-------------|
|-14s16---------------|-(16)--------|
|---------------------|-------------|
|---------------------|-------------|
|---------------------|-------------|



  [F#m7b9/E]  E   E E E E E E  E        +W
|-------------0------------|-----------------|
|-----------7---7----------|-----------------|
|---------0-------0--------|-----------------|
|-------7------------7-----|--(7)------------|
|--------------------------|-----------------|
|---0----------------------|-----------------|

|
| H.. E +H +H
|-------------------13b14==|=(13)----(13)----|
|--------------------------|-----------------|
|--------------------------|-----------------|
|--------------------------|-----------------|
|--------------------------|-----------------|
|--------------------------|-----------------|

|
| +W W
|--------------------------|-----------------|
|--------------------------|-----------------|
|-(16)---------------------|-----------------|
|--------------------------|-----------------|
|--------------------------|-----------------|
|--------------------------|-----------------|



  [F#m7b9/E]  E   E E E E E E E   +W
|-------------0-------|------------|
|-----------7---7-----|------------|
|---------0-------0---|------------|
|-------7-----------7-|-(7)--------|
|---------------------|------------|
|---0-----------------|------------|

|
| >
| +W W
|-(13)r---------------|------------|
|---------------------|------------|
|---------------------|------------|
|---------------------|------------|
|---------------------|------------|
|---------------------|------------|

|
| W W
|---------------------|------------|
|---------------------|------------|
|---------------------|------------|
|---------------------|------------|
|---------------------|------------|
|---------------------|------------|



  [Amadd2] E E   E     E   E  [Am9]E   E     E     W
|------------------0------3-------|------------------|
|--------1----------------------1-|------------------|
|----4---------4------4-----------|---4--------------|
|---------------------------------|------------------|
|--0------------------------------|------------------|
|---------------------------------|------------------|

|
| Q +Q +Q +Q +W
|---------------------------------|------------------|
|---------------------------------|------------------|
|-11---(11)b12r==(11)---(11)b12r==|=(11)-------------|
|---------------------------------|------------------|
|---------------------------------|------------------|
|---------------------------------|------------------|

|
| TP~~
| W Q +H.
|---------------------------------|--14b15===(14)----|
|---------------------------------|------------------|
|---------------------------------|------------------|
|---------------------------------|------------------|
|---------------------------------|------------------|
|---------------------------------|------------------|



PreOutro
  [G#sus4]Gtrs I, II                      [F#sus4]
E E H. +W E E E E +H +W
|---4--------------|------------|-2----------------|--------|
|--------4---------|------------|---2--------------|--------|
|----------6-------|-(6)--------|-----4------------|--------|
|--(6)-------------|------------|-------(4)-(4)----|-(4)----|
|------------------|------------|------------------|--------|
|------------------|------------|------------------|--------|

|
| Gtr IV
| +Q H. W W W
|-(14)r\-----------|------------|------------------|--------|
|------------------|------------|------------------|--------|
|------------------|------------|------------------|--------|
|------------------|------------|------------------|--------|
|------------------|------------|------------------|--------|
|------------------|------------|------------------|--------|



  [E6sus2] E  E H.        +W             [Fsus4]E E E  E  E E E  E    [Fsus4]E E E  E  E E E  E
|--2------------|------------||--1---------1---------|-1---------1----------||
|-----2---------|------------||o---1---------1-------|---1---------1-------o||
|-------4-------|-(4)--------||------3---------3-----|-----3---------3------||
|-(2)-----------|------------||--------(3)-------(3)-|-------(3)-------(3)--||
|---------------|------------||o---------------------|---------------------o||
|---------------|------------||----------------------|----------------------||



Outro
    [Em]H    Q  E E   +Q   [Em]Q  Q  E E   [Bm]H    Q  E E   +Q   [Bm]Q  Q  E E
||--7----7--7-7-|-(7)--7--7--7-x-|-------------|-----------------|
||o-8----8--8-8-|-(8)--8--8--8-x-|-7----7--7-7-|-(7)--7--7--7-x--|
||--9----9--9-9-|-(9)--9--9--9-x-|-7----7--7-7-|-(7)--7--7--7-x--|
||--9----9--9-9-|-(9)--9--9--9-x-|-9----9--9-9-|-(9)--9--9--9-x--|
||o-7----7--7-7-|-(7)--7--7--7-x-|-9----9--9-9-|-(9)--9--9--9-x--|
||--------------|----------------|-7----7--7-7-|-(7)--7--7--7-x--|



  [Am]H    Q  E E   +Q   [Am]Q  Q  E E   [Gmaj7/E]Q.   E E E [C]Q    +E  [Gmaj7/E]E Q  Q  Q   8x
|-------------|----------------|---------------|-----------------||
|-5----5--5-5-|-(5)--5--5--5-x-|---------------|----------------o||
|-5----5--5-5-|-(5)--5--5--5-x-|-0----0-0-0-0--|-(0)-0-0--0--0---||
|-7----7--7-7-|-(7)--7--7--7-x-|-4----4-4-x-4--|-(4)-4-4--4--4---||
|-7----7--7-7-|-(7)--7--7--7-x-|-2----2-2-x-x--|-(x)-2-2--2--2--o||
|-5----5--5-5-|-(5)--5--5--5-x-|-0----0-0-0-2--|-(2)-0-0--0--0---||



Duration Legend
---------------
W - whole; H - half; Q - quarter; E - 8th; S - 16th; T - 32nd; X - 64th; a - acciaccatura

+ - note tied to previous; . - note dotted; .. - note double dotted
Uncapitalized letters represent notes that are staccato (1/2 duration)
Irregular groupings are notated above the duration line
Duration letters will always appear directly above the note/fret number it represents the
duration for. Duration letters with no fret number below them represent rests. Multi-
bar rests are notated in the form Wxn, where n is the number of bars to rest for. Low
melody durations appear below the staff

Tablature Legend
----------------

h - hammer-on
p - pull-off
b - bend
pb - pre-bend
r - bend release (if no number after the r, then release immediately)
/\ - slide into or out of (from/to "nowhere")
s - legato slide
S - shift slide
- natural harmonic
(n) - artificial harmonic
n(n) - tapped harmonic
~ - vibrato
tr - trill
T - tap
TP - trem. picking
PM - palm muting
\n/ - tremolo bar dip; n = amount to dip
\n - tremolo bar down
n/ - tremolo bar up
/n\ - tremolo bar inverted dip
= - hold bend; also acts as connecting device for hammers/pulls
<> - volume swell (louder/softer)
x - on rhythm slash represents muted slash
o - on rhythm slash represents single note slash

Misc Legend
-----------

| - bar
|| - double bar
||o - repeat start
o|| - repeat end
*| - double bar (ending)
: - bar (freetime)
$ - Segno
& - Coda
Tempo markers - = BPM(8/16=s8/s16), where s8 = swing 8ths, s16 = swing

16ths

Important: The song above is NOT stored on the Chordie server. The original song is hosted at www.xguitar.com. Chordie works as a search engine and provides on-the-fly formatting. Chordie does not index songs against artists'/composers' will. To remove this song please click here.

Text color:
Chord color:
Chord grids: 
Font size:    
Page size: 

Am Am9 Amadd2 Asus2 Bm C Cmaj7 E6sus2 Em F#sus4 Fsus4 G#sus4 Gmaj7/E
variations - click chord images

Login - add to songbook

Transpose chords

Tuning

Rating click stars to rate

Layout
Accuracy

SHARE PAGE  




You need to log in to post comments