Guitar Tabs, Chords and Lyrics


Master's Apprentices   Opeth

      x 0[Aadd9] 7 6 0 0          x 0 [Am6]7 5 7 0          x [Amadd9]0 7 5 0 0          x 4 [C#m]6 6 5 0

     x x 12[D] x 15 x         x 5 [Dm]7 7 6 x          x 5 [Db5]6 7 x x          x x[Dsus2] 0 2 3 0

D°/Ab E Em F#
4 x 6 7 6 x x 7 x 9 x x 0 7 5 0 0 0 x 9 x 11 x x

      4 x[G#b5] 6 7 x x

Gtr I (E A D G B E) - 'Distorted Guitar 1'
Gtr II (E A D G B E) - 'Distorted Guitar 2'
Gtr III (E A D G B E) - 'Distorted Guitar 3'
Gtr IV (E A D G B E) - 'Distorted Guitar 4'
Gtr V (E A D G B E) - 'Acoustic Guitar 1'
Gtr VI (E A D G B E) - 'Acoustic Guitar 2'

Intro & 1st Verse
Moderately Q=93
[4/4] Gtrs I, II
                    PM------|                   PM|

H. Q Q e S S e e E E Q Q +E S S Q
|------------||-------------------|--------------------|
|------------||o------------------|--------------------|
|------------||-------------------|--------------------|
|---------3--||--2------------3-2-|-/6--7--(7)\-----3--|
|---------3--||o-2--2-2-2-2-2-3-2-|-------------2-2-3--|
|---------1--||--0--0-0-0-0-0-1-0-|-/4--5--(5)\-0-0-1--|



1.,2.,3.,4.,5. 6.
  [E5]             [F5E5]      [G#)(A)(C]                 [E5]    [F5]      [G#)(A)(C]                 [E5]    [Bm]                            
     PM------|                        PM|                        PM|

Q e S S e e E E Q Q E +E S S E Q Q E +E S S E
|------------------|-------------------------||------------------------||
|------------------|------------------------o||----------------------7-||
|------------------|-------------------------||----------------------7-||
|-2------------3-2-|-/6--7--/10-(10)\-----3--||-/6--7--/10-(10)\-----9-||
|-2--2-2-2-2-2-3-2-|------------------2-2-3-o||------------------2-2-9-||
|-0--0-0-0-0-0-1-0-|-/4--5---/8--(8)\-0-0-1--||-/4--5---/8--(8)\-0-0-7-||



1st Chorus
1.,2.,3.
    [Bm]E. S S S E E. S S S E   E. S S S [A5G#5]S S E [F5]  S  S  S  S  E
||------------------------|---------------------------------||
||o-7--7-x-x-7-7--7-x-x-7-|-7--7-x-x-----------------------o||
||--7--7-x-x-7-7--7-x-x-7-|-7--7-x-x-------/10-10-10-10-10--||
||--9--9-x-x-9-9--9-x-x-9-|-9--9-x-x-7s6-6-/10-10-10-10-10--||
||o-9--9-x-x-9-9--9-x-x-9-|-9--9-x-x-7s6-6--/8--8--8--8--8-o||
||--7--7-x-x-7-7--7-x-x-7-|-7--7-x-x-5s4-4------------------||



4.
  [Bm]E. S S S [A5G#5]S S E [F5]  S  S  S  S E
|-------------------------------||
|-7--7-x-x----------------------||
|-7--7-x-x-------/10-10-10-10---||
|-9--9-x-x-7s6-6-/10-10-10-10-3-||
|-9--9-x-x-7s6-6--/8--8--8--8-3-||
|-7--7-x-x-5s4-4--------------1-||



2nd Verse
    [E5]             [F5E5]      [G#)(A]            [E5]    [F5]     [E5]             [F5E5]                                        
       PM------|                   PM|         PM------|

Q e S S e e E E Q Q +E S S Q Q e S S e e E E
||-------------------|--------------------|------------------|
||o------------------|--------------------|------------------|
||-------------------|--------------------|------------------|
||--2------------3-2-|-/6--7--(7)\-----3--|-2------------3-2-|
||o-2--2-2-2-2-2-3-2-|-------------2-2-3--|-2--2-2-2-2-2-3-2-|
||--0--0-0-0-0-0-1-0-|-/4--5--(5)\-0-0-1--|-0--0-0-0-0-0-1-0-|



1.,2.,3. 4.
(G#)(A)(C) E5 F5 (G#)(A)(Eb) N.C.
PM| ~~ PM
Q Q E +E S S E Q Q E +S S S S S S
|-------------------------||--------------------------||
|------------------------o||--------------------------||
|-------------------------||--------------------------||
|-/6--7--/10-(10)\-----3--||-/6--7--------------------||
|------------------2-2-3-o||--------/6-(6)\---3-6-0---||
|-/4--5---/8--(8)\-0-0-1--||-/4--5----------0-------0-||



Interlude
N.C.
7/8
        PM|          PM----|         PM------|     PM|

S S E S S E E +S S S S S S +S S S S S S S S S S S S S S
|------------------------------|-------------------------------|
|------------------------------|-------------------------------|
|------------------------------|-------------------------------|
|-----2-----5-6-(6)\-----------|-------------------------------|
|------------------------------|---------8-----6s5---------0---|
|-2p1-0-0-0-3-4-(4)\-0-3-4-6-7-|-(7)-6-7---6-7-----7-6-3s6---0-|



4/4 7/8
Gtr I
                  PM|          PM----|         PM------|     PM|

S +S E S S E E +S S S S S S +S S S S S S S S S S S S S S 3x
||---------------------------------------|---------------------------------||
||o--------------------------------------|--------------------------------o||
||---------------------------------------|---------------------------------||
||--------------2-----5-6-(6)\-----------|---------------------------------||
||o--------------------------------------|---------8-----6s5---------0----o||
||--[4]b6r([4])-0-0-0-3-4-(4)\-0-3-4-6-7-|-(7)-6-7---6-7-----7-6-3s6---0---||

|
| Gtr II
|                 PM|          PM----|         PM------|     PM|

| S +S E S S E E +S S S S S S +S S S S S S S S S S S S S S 3x
||---------------------------------------|---------------------------------||
||o--------------------------------------|--------------------------------o||
||---------------------------------------|---------------------------------||
||--------------2-----5-6-(6)\-----------|---------------------------------||
||o--------------------------------------|---------8-----6s5---------0----o||
||--[4]b6r([4])-0-0-0-3-4-(4)\-0-3-4-6-7-|-(7)-6-7---6-7-----7-6-3s6---0---||



C B Eb5 (G#) C B N.C.
[4/4]      PM|   PM                    PM|  ~~~~~~
E E S S e S E S S S S S E E S S E +S S S S S S S S
|---------------------------|-------------------------------|
|---------------------------|-------------------------------|
|----------3---3------2-----|-------------------------------|
|----------2---2----6---6---|-------------------6-----------|
|-/7-6-----1---1------------|-/7-6--------------------4-----|
|-/8-7-0-0-0-0-0-/4-------0-|-/8-7-0-0-/6-(6)-5---4p3---6-0-|



C B Eb5 (G#) C B N.C.
Gtrs I, II
PM| PM PM| ~~~~~~
E E S S e S E S S S S S E E S S E +S S S S S S S S 5x
||----------------------------|--------------------------------||
||o---------------------------|-------------------------------o||
||-----------3---3------2-----|--------------------------------||
||-----------2---2----6---6---|-------------------6------------||
||o-/7-6-----1---1------------|-/7-6--------------------4-----o||
||--/8-7-0-0-0-0-0-/4-------0-|-/8-7-0-0-/6-(6)-5---4p3---6-0--||



3rd Verse
N.C.
     PM-----|   PM    PM------|   PM|     PM--|

|-3-|
S S S S S S S S S S S S S S S S S
||-----------------------------------------------|
||o----------------------------------------------|
||-----------------------------------------------|
||-----------------------------------------------|
||o----------------------------------------------|
||---0-0--0-----0-----0---0---0---0-0-----7-6-5\-|

|
| Gtr III
| E Q E +E Q E
||-----------------------------------------------|
||o----------------------------------------------|
||--/9---10-------/13---(13)\---9-------/16------|
||-----------------------------------------------|
||o-/7----8-------/11---(11)\---7-------/14------|
||-----------------------------------------------|



~~~~~ PM-| ~~~~~~~~~~~~
E E E. S S S E E E
|------------------------------------------|
|------------------------------------------|
|------------------------------------------|
|------------------------------------------|
|-----------[1]-----0-------------------5\-|
|---1----0--------------1--0--/4---7-------|

|
| +E E +E E +E E +E E
|------------------------------------------|
|------------------------------------------|
|-(16)-\14-(14)\-10---(10)---/14-(14)\-10--|
|------------------------------------------|
|-(14)-\12-(12)\--8----(8)---/12-(12)\--8--|
|------------------------------------------|
    PM-----|   PM  PM----|    PM|   PM--|           ~~~  PM|  ~~~~~~~

|-3-|
S S S S S S S S S S S S S S S S S E E E. S S S E E E
|------------------------------------------|---------------------------||
|------------------------------------------|--------------------------o||
|------------------------------------------|---------------------------||
|------------------------------------------|---------------------------||
|------------------------------------------|-------[1]-0----------5\--o||
|---0--0-0-----0---0--0--0----0-0---7-6-5\-|--1--0-------1-0-/4-7------||

|
| +E Q E +E E Q +W
|------------------------------------------|---------------------------||
|------------------------------------------|--------------------------o||
|-(10)---9-------8---(8)---9\---4----------|-(4)-----------------------||
|------------------------------------------|---------------------------||
|--(8)---7-------6---(6)---7\---2----------|-(2)----------------------o||
|------------------------------------------|---------------------------||



Interlude
C B Eb5 (G#) C B N.C.
PM| PM PM| ~~~~~~
E E S S e S E S S S S S E E S S E +S S S S S S S S
|---------------------------|--------------------------------|
|---------------------------|--------------------------------|
|----------3---3------2-----|--------------------------------|
|----------2---2----6---6---|--------------------6-----------|
|-/7-6-----1---1------------|-/7--6--------------------4-----|
|-/8-7-0-0-0-0-0-/4-------0-|-/8--7-0-0-/6-(6)-5---4p3---6-0-|

|
| >
| W +W
|---------------------------|--------------------------------|
|---------------------------|--------------------------------|
|--9------------------------|-(9)----------------------------|
|---------------------------|--------------------------------|
|--7------------------------|-(7)----------------------------|
|---------------------------|--------------------------------|



PM| PM PM| ~~~~~~
E E S S e S E S S S S S E E S S E +S S S S S S S S 3x
||----------------------------|--------------------------------||
||o---------------------------|-------------------------------o||
||-----------3---3------2-----|--------------------------------||
||-----------2---2----6---6---|-------------------6------------||
||o-/7-6-----1---1------------|-/7-6--------------------4-----o||
||--/8-7-0-0-0-0-0-/4-------0-|-/8-7-0-0-/6-(6)-5---4p3---6-0--||



4th Verse
N.C.
   PM-----|   PM    PM------|   PM|     PM--|

|-3-|
S S S S S S S S S S S S S S S S S
|----------------------------------------------|
|----------------------------------------------|
|----------------------------------------------|
|----------------------------------------------|
|----------------------------------------------|
|--0-0--0-----0-----0---0---0---0-0-----7-6-5\-|

|
| Gtr III
| E Q E +E Q E
|----------------------------------------------|
|----------------------------------------------|
|-/9---10-------/13---(13)\---9-------/16------|
|----------------------------------------------|
|-/7----8-------/11---(11)\---7-------/14------|
|----------------------------------------------|



~~~~~ PM-| ~~~~~~~~~~~~
E E E. S S S E E E
|------------------------------------------|
|------------------------------------------|
|------------------------------------------|
|------------------------------------------|
|-----------[1]-----0-------------------5\-|
|---1----0--------------1--0--/4---7-------|

|
| +E E +E E +E E +E E
|------------------------------------------|
|------------------------------------------|
|-(16)-\14-(14)\-10---(10)---/14-(14)\-10--|
|------------------------------------------|
|-(14)-\12-(12)\--8----(8)---/12-(12)\--8--|
|------------------------------------------|
    PM-----|   PM  PM----|    PM|   PM--|           ~~~  PM|  ~~~~~~~

|-3-|
S S S S S S S S S S S S S S S S S E E E. S S S E E E
|------------------------------------------|--------------------------|
|------------------------------------------|--------------------------|
|------------------------------------------|--------------------------|
|------------------------------------------|--------------------------|
|------------------------------------------|-------[1]-0----------5\--|
|---0--0-0-----0---0--0--0----0-0---7-6-5\-|--1--0-------1-0-/4-7-----|

|
| +E Q E +E E Q +W
|------------------------------------------|--------------------------|
|------------------------------------------|--------------------------|
|-(10)---9-------8---(8)---9\---4----------|-(4)----------------------|
|------------------------------------------|--------------------------|
|--(8)---7-------6---(6)---7\---2----------|-(2)----------------------|
|------------------------------------------|--------------------------|
   PM-----|   PM    PM------|   PM|     PM--|

|-3-|
S S S S S S S S S S S S S S S S S
|----------------------------------------------|
|----------------------------------------------|
|----------------------------------------------|
|----------------------------------------------|
|----------------------------------------------|
|--0-0--0-----0-----0---0---0---0-0-----7-6-5\-|

|
| E Q E +E Q E
|----------------------------------------------|
|----------------------------------------------|
|-/9---10-------/13---(13)\---9-------/16------|
|----------------------------------------------|
|-/7----8-------/11---(11)\---7-------/14------|
|----------------------------------------------|



~~~~~ PM-| ~~~~~~~~~~~~
E E E. S S S E E E
|------------------------------------------|
|------------------------------------------|
|------------------------------------------|
|------------------------------------------|
|-----------[1]-----0-------------------5\-|
|---1----0--------------1--0--/4---7-------|

|
| +E E +E E +E E +E E
|------------------------------------------|
|------------------------------------------|
|-(16)-\14-(14)\-10---(10)---/14-(14)\-10--|
|------------------------------------------|
|-(14)-\12-(12)\--8----(8)---/12-(12)\--8--|
|------------------------------------------|
    PM-----|   PM  PM----|    PM|

S S S S S S S S S S S S S S S S
|---------------------------------------|
|---------------------------------------|
|---------------------------------------|
|-----------------------------------5-5-|
|---------------------------------------|
|---0--0-0-----0---0--0--0----0-0---3-3-|

|
| +E Q E +E Q.
|---------------------------------------|
|---------------------------------------|
|-(10)---9-------8---(8)---9------------|
|---------------------------------------|
|--(8)---7-------6---(6)---7------------|
|---------------------------------------|



S S S S S S S S S S S S S E +S
|-----------------------------------------------||
|-----------------------------------------------||
|-----------------------------------------------||
|--7--7-7-9-9-9-10-10-10--12-12-12-13--14-(14)\-||
|-----------------------------------------------||
|--5--5-5-7-7-7--8--8--8--10-10-10-11--12-(12)\-||

|
| +H +Q +E. +S
|-----------------------------------------------||
|-----------------------------------------------||
|-(9)-----------------(9)----------(9)-----(9)\-||
|-----------------------------------------------||
|-(7)-----------------(7)----------(7)-----(7)\-||
|-----------------------------------------------||



2nd Chorus
  [Am]E. S S S E +S  S S S S S S S   [Bm11]E. S S S E +S  S S S S S S S
|------------------------------|-0--0-x-x-0-(0)-0-0-0-0-0-0-0--|
|-5--5-x-x-5-(5)-5-5-5-5-5-5-5-|-0--0-x-x-0-(0)-0-0-0-0-0-0-0--|
|-5--5-x-x-5-(5)-5-5-5-5-5-5-5-|-7--7-x-x-7-(7)-7-7-7-7-7-7-7--|
|-7--7-x-x-7-(7)-7-7-7-7-7-7-7-|-7--7-x-x-7-(7)-7-7-7-7-7-7-7--|
|-7--7-x-x-7-(7)-7-7-7-7-7-7-7-|-5--5-x-x-5-(5)-5-5-5-5-5-5-5--|
|-5--5-x-x-5-(5)-5-5-5-5-5-5-5-|-7--7-x-x-7-(7)-7-7-7-7-7-7-7--|



  [F#m7b5]E. S S S E +S  S S S S S S S   [F]E. S S S E +S  S S S S S S S
|-0--0-x-x-0-(0)-0-0-0-0-0-0-0-|-------------------------------|
|-1--1-x-x-1-(1)-1-1-1-1-1-1-1-|-1--1-x-x-1-(1)-1-1-1-1-1-1-1--|
|-2--2-x-x-2-(2)-2-2-2-2-2-2-2-|-2--2-x-x-2-(2)-2-2-2-2-2-2-2--|
|-2--2-x-x-2-(2)-2-2-2-2-2-2-2-|-3--3-x-x-3-(3)-3-3-3-3-3-3-3--|
|------------------------------|-3--3-x-x-3-(3)-3-3-3-3-3-3-3--|
|-2--2-x-x-2-(2)-2-2-2-2-2-2-2-|-1--1-x-x-1-(1)-1-1-1-1-1-1-1--|



  [Am]E. S S S E +S  S S S S S S S   [Bm11]E. S S S E +S  S S S S S S S
|------------------------------|-0--0-x-x-0-(0)-0-0-0-0-0-0-0--|
|-5--5-x-x-5-(5)-5-5-5-5-5-5-5-|-0--0-x-x-0-(0)-0-0-0-0-0-0-0--|
|-5--5-x-x-5-(5)-5-5-5-5-5-5-5-|-7--7-x-x-7-(7)-7-7-7-7-7-7-7--|
|-7--7-x-x-7-(7)-7-7-7-7-7-7-7-|-7--7-x-x-7-(7)-7-7-7-7-7-7-7--|
|-7--7-x-x-7-(7)-7-7-7-7-7-7-7-|-5--5-x-x-5-(5)-5-5-5-5-5-5-5--|
|-5--5-x-x-5-(5)-5-5-5-5-5-5-5-|-7--7-x-x-7-(7)-7-7-7-7-7-7-7--|



  [F#m7b5]E. S S S E +S  S S S [F]E. S   S S E +S  S S S [G/B]S S S S S S S S
|-0--0-x-x-0-(0)-0-0-0------|----------------------------------||
|-1--1-x-x-1-(1)-1-1-1-1--1-|-x-x-1-(1)-1-1-1-3-3-3-3-3-3-3-3--||
|-2--2-x-x-2-(2)-2-2-2-2--2-|-x-x-2-(2)-2-2-2-0-0-0-0-0-0-0-0--||
|-2--2-x-x-2-(2)-2-2-2-3--3-|-x-x-3-(3)-3-3-3-0-0-0-0-0-0-0-0--||
|----------------------3--3-|-x-x-3-(3)-3-3-3-2-2-2-2-2-2-2-2--||
|-2--2-x-x-2-(2)-2-2-2-1--1-|-x-x-1-(1)-1-1-1------------------||



Bridge
  [Dm]Gtrs I, II
E. S S S E +S S S S S S S S
| | | | | | | | | | | | |
/ / x x / / / / / / / / /

Gtr III
Q. E +H
|-------------------------------|
|-------------------------------|
|-10--------7-(7)---------------|
|-------------------------------|
|--8--------5-(5)---------------|
|-------------------------------|



  [Db5]E. S S S E +S S S S S S S S   [Dm] E. S S S E +S  S S S S S S S
| | | | | | | | | | | | | | | | | | | | | | | | | |
/ / x x / / / / / / / / / / / x x / / / / / / / / /

W Q. E +H
|-----------------------------|-------------------------------|
|-----------------------------|-------------------------------|
|-9---------------------------|-10--------7-(7)---------------|
|-----------------------------|-------------------------------|
|-7---------------------------|--8--------5-(5)---------------|
|-----------------------------|-------------------------------|



  [G#b5] E. S S S  E  +S   S S  S S S S S
| | | | | | | | | | | | |
/ / x x / / / / / / / / /

Q. E +E Q.
|-----------------------------------|
|-----------------------------------|
|-13--------12-(12)\---7------------|
|-----------------------------------|
|-11--------10-(10)\---5------------|
|-----------------------------------|



  [Dm] E. S S S E +S  S S S S S S S   [Db5]E. S S S E +S S S S S S S S
| | | | | | | | | | | | | | | | | | | | | | | | | |
/ / x x / / / / / / / / / / / x x / / / / / / / / /

Q. E +H W
|-------------------------------|-----------------------------|
|-------------------------------|-----------------------------|
|-10--------7-(7)---------------|-9---------------------------|
|-------------------------------|-----------------------------|
|--8--------5-(5)---------------|-7---------------------------|
|-------------------------------|-----------------------------|



  [Dm] E. S S S E +S  S S S S S S S   [G#b5] E. S S S  E  +S   S S  S  S S S S
| | | | | | | | | | | | | | | | | | | | | | | | | |
/ / x x / / / / / / / / / / / x x / / / / / / / / /

Q. E +H Q. E +E Q.
|-------------------------------|-------------------------------------||
|-------------------------------|-------------------------------------||
|-10--------7-(7)---------------|-13--------12-(12)\---7--------------||
|-------------------------------|-------------------------------------||
|--8--------5-(5)---------------|-11--------10-(10)\---5--------------||
|-------------------------------|-------------------------------------||

|
| Gtr IV
| W H. Q
|-------------------------------|-------------------------------------||
|-------------------------------|-------------------------------------||
|-------------------------------|---------------------------14--------||
|-------------------------------|-------------------------------------||
|-------------------------------|-------------------------------------||
|-------------------------------|-------------------------------------||



Instrumental Break
  [Dm]  E. S S S E +S  S S S S S S S
| | | | | | | | | | | | |
/ / x x / / / / / / / / /

Q. E +H
|--------------------------------|
|--------------------------------|
|--10--------7-(7)---------------|
|--------------------------------|
|---8--------5-(5)---------------|
|--------------------------------|

|
| +W
|--------------------------------|
|--------------------------------|
|-(14)---------------------------|
|--------------------------------|
|--------------------------------|
|--------------------------------|



  [Db5]  E. S S S E  +S  S S S   S   S  S S   [Dm]  E. S S S E  +S  S S S S S S S
| | | | | | | | | | | | | | | | | | | | | | | | | |
/ / x x / / / / / / / / / / / x x / / / / / / / / /

W Q. E +H
|--------------------------------------|---------------------------------|
|--------------------------------------|---------------------------------|
|---9----------------------------------|--10--------7--(7)---------------|
|--------------------------------------|---------------------------------|
|---7----------------------------------|---8--------5--(5)---------------|
|--------------------------------------|---------------------------------|

|
| H +Q +E E +H H
|--15----------(15)-------(15)\--------|---------------15----------------|
|---------------------------------13---|-(13)---------(13)---------------|
|-(14)---------------------------------|---------------------------------|
|--------------------------------------|---------------------------------|
|--------------------------------------|---------------------------------|
|--------------------------------------|---------------------------------|



  [G#b5] E. S S S  E  +S   S S  S  S S S S
| | | | | | | | | | | | |
/ / x x / / / / / / / / /

Q. E +E Q.
|------------------------------------|
|------------------------------------|
|-13--------12-(12)\---7-------------|
|------------------------------------|
|-11--------10-(10)\---5-------------|
|------------------------------------|

|
| H. Q
|-13------------------------12-------|
|------------------------------------|
|---------------------------14-------|
|------------------------------------|
|------------------------------------|
|------------------------------------|



  [Dm]  E. S S S E +S  S S S   S  S S S   [Db5]  E. S   S  S E  +S  S S S S S S S
| | | | | | | | | | | | | | | | | | | | | | | | | |
/ / x x / / / / / / / / / / / x x / / / / / / / / /

Q. E +H W
|-----------------------------------|------------------------------------|
|-----------------------------------|------------------------------------|
|--10--------7-(7)------------------|---9--------------------------------|
|-----------------------------------|------------------------------------|
|---8--------5-(5)------------------|---7--------------------------------|
|-----------------------------------|------------------------------------|

|
| +H. Q +Q Q +H
|-(12)------------------------------|---------15------(15)---------------|
|-------------------------15--------|-(15)---(15)-----(15)---------------|
|-(14)-------------------(14)-------|-(14)-------------------------------|
|-----------------------------------|------------------------------------|
|-----------------------------------|------------------------------------|
|-----------------------------------|------------------------------------|



  [Dm]  E.      S S S   E   +S  S S S S S S S   [G#b5] E. S S S  E  +S   S S  S S S S S
| | | | | | | | | | | | | | | | | | | | | | | | | |
/ / x x / / / / / / / / / / / x x / / / / / / / / /

Q. E +H Q. E +E Q.
|-----------------------------------------|-----------------------------------||
|-----------------------------------------|-----------------------------------||
|--10---------------7---(7)---------------|-13--------12-(12)\---7------------||
|-----------------------------------------|-----------------------------------||
|---8---------------5---(5)---------------|-11--------10-(10)\---5------------||
|-----------------------------------------|-----------------------------------||

|
| +E Q E +H W
|-(15)-(15)-------(15)-(15)---------------|-13--------------------------------||
|-(15)--17---------13--(13)---------------|-----------------------------------||
|-----------------------------------------|-10--------------------------------||
|-----------------------------------------|-----------------------------------||
|-----------------------------------------|-----------------------------------||
|-----------------------------------------|-----------------------------------||



3rd Chorus
    [Am]Gtrs I, II                     [Bm11]
E. S S S E +S S S S S S S S E. S S S E +S S S S S S S S
||-------------------------------|-0--0-x-x-0-(0)-0-0-0-0-0-0-0-|
||o-5--5-x-x-5-(5)-5-5-5-5-5-5-5-|-0--0-x-x-0-(0)-0-0-0-0-0-0-0-|
||--5--5-x-x-5-(5)-5-5-5-5-5-5-5-|-7--7-x-x-7-(7)-7-7-7-7-7-7-7-|
||--7--7-x-x-7-(7)-7-7-7-7-7-7-7-|-7--7-x-x-7-(7)-7-7-7-7-7-7-7-|
||o-7--7-x-x-7-(7)-7-7-7-7-7-7-7-|-5--5-x-x-5-(5)-5-5-5-5-5-5-5-|
||--5--5-x-x-5-(5)-5-5-5-5-5-5-5-|-7--7-x-x-7-(7)-7-7-7-7-7-7-7-|



1. 2.
  [F#m7b5]Gtrs V, VI                     [F]                                 [Dsus2]
W W W
|
>
E. S S S E +S S S S S S S S E. S S S E +S S S S S S S S W
|-0--0-x-x-0-(0)-0-0-0-0-0-0-0-|-------------------------------||------||
|-1--1-x-x-1-(1)-1-1-1-1-1-1-1-|-1--1-x-x-1-(1)-1-1-1-1-1-1-1-o||-3----||
|-2--2-x-x-2-(2)-2-2-2-2-2-2-2-|-2--2-x-x-2-(2)-2-2-2-2-2-2-2--||-2----||
|-2--2-x-x-2-(2)-2-2-2-2-2-2-2-|-3--3-x-x-3-(3)-3-3-3-3-3-3-3--||-0----||
|------------------------------|-3--3-x-x-3-(3)-3-3-3-3-3-3-3-o||------||
|-2--2-x-x-2-(2)-2-2-2-2-2-2-2-|-1--1-x-x-1-(1)-1-1-1-1-1-1-1--||------||



Transition
  [Aadd9] Q   E S S E E E [Em]E   +S S E E S S E E E S S
| | | | | | | | | | | | | | | | | | |
+W W
|--------------------|------------------------|
|-(3)----------------|------------------------|
|-(2)----------------|------------------------|
|-(0)----------------|------------------------|
|--------------------|------------------------|
|--------------------|------------------------|



  [Amadd9]Q  E S S E E S S [Em]E   +S S E E S S E E E S S
| | | | | | | | | | | | | | | | | | | |
W W
|--------------------|------------------------||
|--------------------|------------------------||
|--------------------|------------------------||
|--------------------|------------------------||
|--------------------|------------------------||
|--------------------|------------------------||



1st Guitar Solo
  [Amadd9] Q  E S S E E S S [Em]E    +S  S E E S S   E      E  E S S
| | | | | | | | | | | | | | | | | | | |
Gtr III
W +H +E a Q.
|---------------------|----------------------------------|
|-12------------------|-(12)-----------(12)-12h13--------|
|---------------------|----------------------------------|
|---------------------|----------------------------------|
|---------------------|----------------------------------|
|---------------------|----------------------------------|



  [Amadd9]  Q      E S S   E  E S S [Em]E    +S  S  E  E S S  E  E   E   S S
| | | | | | | | | | | | | | | | | | | |
~~~~~~~~~~~~~~~~~~
+E Q. +H +E E Q E E +E E
|-----------------------------|-----------------------------------|
|-(13)-12--------(12)---------|-(12)---12s15-----15-13-(13)s15----|
|-----------------------------|-----------------------------------|
|-----------------------------|-----------------------------------|
|-----------------------------|-----------------------------------|
|-----------------------------|-----------------------------------|



  [Amadd9] Q     E S S   E  E  S S [Em]  E     +S  S  E   E  S S   E  E E S S
| | | | | | | | | | | | | | | | | | | |
< >
E Q. +H +Q +Q +H
|-------------------------------|---------------------------------|
|-15s12--------(12)-------------|-(12)------(12)-----(12)---------|
|-------------------------------|---------------------------------|
|-------------------------------|---------------------------------|
|-------------------------------|---------------------------------|
|-------------------------------|---------------------------------|

|
| Gtr IV
| < > <
| H Q E +E +E E +Q +H
|---------------------31---(31)-|-(31)---26-(26)-----(26)---------|
|-------------------------------|---------------------------------|
|-------------------------------|---------------------------------|
|-------------------------------|---------------------------------|
|-------------------------------|---------------------------------|
|-------------------------------|---------------------------------|



  [Amadd9]  Q   E S S E E S S [Em]E    +S  S E   E      S S   E    E      E S S
| | | | | | | | | | | | | | | | | | | |
W W
|-----------------------|--------------------------------------------|
|-----------------------|--------------------------------------------|
|-----------------------|--------------------------------------------|
|-----------------------|--------------------------------------------|
|-----------------------|--------------------------------------------|
|-----------------------|--------------------------------------------|

|
| +W +Q +S S E +E +Q.
|-(26)------------------|-(26)-----(26)----26---(26)-(26)b27=========|
|-----------------------|---------------12---------------------------|
|-----------------------|--------------------------------------------|
|-----------------------|--------------------------------------------|
|-----------------------|--------------------------------------------|
|-----------------------|--------------------------------------------|



  [Amadd9]  Q   E   S      S   E  E S S [Em]E    +S  S   E    E   S S   E      E   E  S S
| | | | | | | | | | | | | | | | | | | |
< >
Q. E +H +E +E +Q +Q Q
|----------19pb20====(19)---------|-(19)r==(19)-(19)------(19)----------------|
|---------------------------------|-------------------------------------------|
|---------------------------------|-------------------------------------------|
|---------------------------------|-------------------------------------------|
|---------------------------------|-------------------------------------------|
|---------------------------------|-------------------------------------------|

|
| > <
| +Q. +E H Q. E +Q +Q
|-(26)----(26)r-------------------|------------------31---(31)b34====(31)-----|
|---------------------------------|-------------------------------------------|
|---------------------------------|-------------------------------------------|
|---------------------------------|-------------------------------------------|
|---------------------------------|-------------------------------------------|
|---------------------------------|-------------------------------------------|



  [Amadd9]  Q   E S S   E    E        S  S [Em]E    +S  S   E  E  S S   E  E E  S S
| | | | | | | | | | | | | | | | | | | |
W H Q. E
|------------------------------------|------------------------------------||
|------------------------------------|-----------------------------12s====||
|------------------------------------|------------------------------------||
|------------------------------------|------------------------------------||
|------------------------------------|------------------------------------||
|------------------------------------|------------------------------------||

|
| +H +E +E +Q +E +Q E +H
|-(31)--------(31)r(31)b34==(31)r====|=(31)---(31)---19---(19)------------||
|------------------------------------|------------------------------------||
|------------------------------------|------------------------------------||
|------------------------------------|------------------------------------||
|------------------------------------|------------------------------------||
|------------------------------------|------------------------------------||



5th Verse
  [Am6]Q  E S S E E S S [C#m]E   +S S E E S S S S E E S S
| | | | | | | | | | | | | | | | | | | | |
>
W W
|--------------------|--------------------------|
|-7------------------|--------------------------|
|--------------------|--------------------------|
|--------------------|--------------------------|
|--------------------|--------------------------|
|--------------------|--------------------------|



    [Am6]Q  E S S E E S S [C#m]E   +S S E E S S S S E E S S
| | | | | | | | | | | | | | | | | | | | |
W W 7x
||---------------------|-----------------------------||
||o--------------------|----------------------------o||
||---------------------|-----------------------------||
||---------------------|-----------------------------||
||o--------------------|----------------------------o||
||---------------------|-----------------------------||



Interlude
  [Bmadd11]Gtrs V, V[A6add9F#11]I                                  [G#m]                       [Emadd9]
Q E S S E E E E +Q. E +E E E S S Q E S S S S S S S S E
|-0--0-0-0-0-0---^0-|-(0)---0-(0)-0-0-0-0-||--4--4-4-4-4-(4)-4-4-4-4-0-||
|-0--0-0-0-0-0---^0-|-(0)---0-(0)-0-0-0-0-||o-4--4-4-4-4-(4)-4-4-4-4-0-||
|-7--7-7-7-6-6---^3-|-(3)---3-(3)-3-3-3-3-||--4--4-4-4-4-(4)-4-4-4-4-0-||
|-9--9-9-9-7-7---^4-|-(4)---4-(4)-4-4-4-4-||--6--6-6-6-4h=6--6-6-6-6-4-||
|-9--9-9-9-9-9---^4-|-(4)---4-(4)-4-4-4-4-||o-6--6-6-6-6-(6)-6-6-6-6-2-||
|-7--7-7-7-5-5---^2-|-(2)---2-(2)-2-2-2-2-||--4--4-4-4-4-(4)-4-4-4-4-0-||



+S S E E S S E E E S S 3x
|-(0)-0-0-0-0-0-0-0-0-0-0--||
|-(0)-0-0-0-0-0-0-0-0-0-0-o||
|-(0)-0-0-0-0-0-0-0-0-0-0--||
|-(4)-4-4-4-4-4-4-4-4-4-4--||
|-(2)-2-2-2-2-2-2-2-2-2-2-o||
|-(0)-0-0-0-0-0-0-0-0-0-0--||



  [G#m]Q  E S S S  S  S S S S [G#m/Eb]E   +S  S E E S S [F#/C#]E E E S S
|-4--4-4-4-4-(4)-4-4-4-4-4-|-(4)-4-4-4-4-4-----------||
|-4--4-4-4-4-(4)-4-4-4-4-4-|-(4)-4-4-4-4-4-2-2-2-2-2-||
|-4--4-4-4-4-(4)-4-4-4-4-4-|-(4)-4-4-4-4-4-3-3-3-3-3-||
|-6--6-6-6-4h=6--6-6-6-6-6-|-(6)-6-6-6-6-6-4-4-4-4-4-||
|-6--6-6-6-6-(6)-6-6-6-6-6-|-(6)-6-6-6-6-6-4-4-4-4-4-||
|-4--4-4-4-4-(4)-4-4-4-4---|-------------------------||



1.,2.,3. 4.
    [Badd11]Q  E S S E S S S S [Aadd9]E   +S  S E E S S E E E S S     +W
||--0--0-0-0-0-0-0-0-0-0-|-(0)-0-0-0-0-0-0-0-0-0-0--||-(0)----||
||o-0--0-0-0-0-0-0-0-0-0-|-(0)-0-0-0-0-0-0-0-0-0-0-o||-(0)----||
||--8--8-8-8-8-8-8-8-8-6-|-(6)-6-6-6-6-6-6-6-6-6-6--||-(6)----||
||--9--9-9-9-9-9-9-9-9-7-|-(7)-7-7-7-7-7-7-7-7-7-7--||-(7)----||
||o-9--9-9-9-9-9-9-9-9-7-|-(7)-7-7-7-7-7-7-7-7-7-7-o||-(7)----||
||--7--7-7-7-7-7-7-7-7-5-|-(5)-5-5-5-5-5-5-5-5-5-5--||-(5)----||



6th Verse
    [Amadd9]Q  E S S E E S S [C#sus2]E   +S  S E E S S E E E S S  4x
||--0--0-0-0-0-0-0-0-4-|-(4)-4-4-4-4-4-4-4-4-4-4--||
||o-0--0-0-0-0-0-0-0-4-|-(4)-4-4-4-4-4-4-4-4-4-4-o||
||--5--5-5-5-5-5-5-5-6-|-(6)-6-6-6-6-6-6-6-6-6-6--||
||--7--7-7-7-7-7-7-7-6-|-(6)-6-6-6-6-6-6-6-6-6-6--||
||o-0--0-0-0-0-0-0-0-4-|-(4)-4-4-4-4-4-4-4-4-4-4-o||
||---------------------|--------------------------||



Transition
Faster Q.=68
Cb5/F# N.C.
6/8
Gtrs I, II
                                                PM---------| ~~

E Q E Q E Q E Q E Q E Q S S S S S S Q.
|-------------|--------------|--------------|---------------------||
|-------------|--------------|--------------|---------------------||
|-------------|--------------|--------------|---------------------||
|--4-----4----|---4-----4----|---4-----4----|---------------------||
|--3-----3----|---3-----3----|---3-----3----|---------------------||
|--2-----2----|---2-----2----|---2-----2----|---0--2-3-0-3-5-6----||

|
| Gtr III
| <
| H. +H. +H. +H.
|-------------|--------------|--------------|---------------------||
|-12----------|-(12)---------|-(12)---------|-(12)----------------||
|-------------|--------------|--------------|---------------------||
|-------------|--------------|--------------|---------------------||
|-------------|--------------|--------------|---------------------||
|-------------|--------------|--------------|---------------------||

|
| Gtr IV
| <
| H. +H. +H. +H.
|-15----------|-(15)---------|-(15)---------|-(15)----------------||
|-------------|--------------|--------------|---------------------||
|-------------|--------------|--------------|---------------------||
|-------------|--------------|--------------|---------------------||
|-------------|--------------|--------------|---------------------||
|-------------|--------------|--------------|---------------------||



Instrumental Break
N.C.
    PM----------------------------

S S S S S S S S S S S S
||-------------------------------|
||o------------------------------|
||-------------------------------|
||-------------------------------|
||o----5-7----5-7-----5-7----5-7-|
||--0------0-------0------0------|

|
| E. E. E. E.
||-------------------------------|
||o------------------------------|
||------------------------4------|
||--2------4------/5-------------|
||o------------------------------|
||-------------------------------|

|
| E. E. E. E.
||-------------------------------|
||o------------------------------|
||------------------------7------|
||--5------7------/9-------------|
||o------------------------------|
||-------------------------------|
 -----------------------------------------------------------|

S S S S S S S S S S S S S S S S S S S S S S S S
|------------------------------|------------------------------|
|------------------------------|------------------------------|
|------------------------------|------------------------------|
|------------------------------|------------------------------|
|-----5--7----5--7---5-7---5-7-|----5--7----5---7---5-7---5-7-|
|---0-------0------0-----0-----|--0-------0-------0-----0-----|

|
| E S E S E S E S E S E S E S E S
|------------------------------|------------------------------|
|------------------------------|------------------------------|
|--/7----7--7----7-6---6-6---6-|--5----5--5----/7-4---4-4---4-|
|------------------------------|------------------------------|
|------------------------------|------------------------------|
|------------------------------|------------------------------|

|
| E S E S E S E S E S E S E S E S
|------------------------------|------------------------------|
|------------------------------|------------------------------|
|-/11---11-11---11-9---9-9---9-|-11---11-11---/12-9---9-9---9-|
|------------------------------|------------------------------|
|------------------------------|------------------------------|
|------------------------------|------------------------------|
  PM--------| ~~

S S S S S S Q. S S S S S S S S S S S S
|-----------------------||-||-------------------------------|
|----------------------o||-||o------------------------------|
|-----------------------||-||-------------------------------|
|-----------------------||-||-------------------------------|
|----------------------o||-||o----5-7----5-7-----5-7----5-7-|
|-0-2-3-0-3-5-6---------||-||--0------0-------0------0------|

|
| E S E S Q +E E. E. E. E.
|-----------------------||-||-------------------------------|
|----------------------o||-||o------------------------------|
|-4---4-4---4-4---(4)\--||-||------------------------4------|
|-----------------------||-||--2------4------/5-------------|
|----------------------o||-||o------------------------------|
|-----------------------||-||-------------------------------|

|
| E S E S Q +E E. E. E. E.
|-----------------------||-||-------------------------------|
|----------------------o||-||o------------------------------|
|-9---9-9---9-9---(9)\--||-||------------------------7------|
|-----------------------||-||--5------7------/9-------------|
|----------------------o||-||o------------------------------|
|-----------------------||-||-------------------------------|



S S S S S S S S S S S S
|------------------------------|
|------------------------------|
|------------------------------|
|------------------------------|
|-----5--7----5--7---5-7---5-7-|
|---0-------0------0-----0-----|

|
| E S E S E S E S
|------------------------------|
|------------------------------|
|--/7----7--7----7-6---6-6---6-|
|------------------------------|
|------------------------------|
|------------------------------|

|
| E S E S E S E S
|------------------------------|
|------------------------------|
|-/11---11-11---11-9---9-9---9-|
|------------------------------|
|------------------------------|
|------------------------------|



~~
S S S S S S S S S S S S S S S S S S Q.
|------------------------------|-----------------------||
|------------------------------|----------------------o||
|------------------------------|-----------------------||
|------------------------------|-----------------------||
|----5--7----5---7---5-7---5-7-|----------------------o||
|--0-------0-------0-----0-----|-0-2-3-0-3-5-6---------||

|
| E S E S E S E S E S E S Q +E
|------------------------------|-----------------------||
|------------------------------|----------------------o||
|--5----5--5----/7-4---4-4---4-|-4---4-4---4-4---(4)\--||
|------------------------------|-----------------------||
|------------------------------|----------------------o||
|------------------------------|-----------------------||

|
| E S E S E S E S E S E S Q +E
|------------------------------|-----------------------||
|------------------------------|----------------------o||
|-11---11-11---/12-9---9-9---9-|-9---9-9---9-9---(9)\--||
|------------------------------|-----------------------||
|------------------------------|----------------------o||
|------------------------------|-----------------------||



2nd Guitar Solo
N.C.
    PM---------------------------------------------------------------------|

S S S S S S S S S S S S S S S S S S S S S S S S
|--------------------------------------|-------------------------------------|
|--------------------------------------|-------------------------------------|
|--------------------------------------|-------------------------------------|
|--------------------------------------|-------------------------------------|
|------5--7-----5--7-----5--7-----5--7-|-----5--7-----5--7-----5--7-----5--7-|
|---0--------0--------0--------0-------|--0--------0--------0--------0-------|

|
| Gtr IV
| S S S S S S S S S S S S S S S S S S S S S S E
|-----10----10----10----10----10----10-|----10----10----10----10----10-------|
|-/12----12----12----12----12----12----|-11----11----11----11----11----11\---|
|--------------------------------------|-------------------------------------|
|--------------------------------------|-------------------------------------|
|--------------------------------------|-------------------------------------|
|--------------------------------------|-------------------------------------|
  PM-------------------------------------|  ~~~

S S S S S S S S S S S S S S S S S S Q.
|--------------------------|----------------------|
|--------------------------|----------------------|
|--------------------------|----------------------|
|--------------------------|----------------------|
|---5-7---5-7---5-7----5-7-|----------------------|
|-0-----0-----0------0-----|-0-2--3--0-3-5--6-----|

|
| ~ ~~~~~~~~~~~~~
| S S Q S S S E S S S +Q +Q E
|--------------------------|----------------------|
|-7h8----------------------|----------------------|
|-----9-------7s9p7--------|----------------------|
|-------------------\7---5-|----------------------|
|--------------------------|-5s7-(7)-------(7)----|
|--------------------------|--------------------0-|
   PM---------------------------------|

S S S S S S S S S S S S
|---------------------------------------|
|---------------------------------------|
|---------------------------------------|
|---------------------------------------|
|--------5-7-----5----7-----5--7----5-7-|
|--0---------0------------0-------0-----|

|
| ~~~
| Q +S +S S S +Q
|---------------------------------------|
|-12------------------------------------|
|-14b16========(14)r(14)-12s9-(9)-------|
|---------------------------------------|
|---------------------------------------|
|---------------------------------------|
   PM-------------------------------------------------------------------

S S S S S S S S S S S S S S S S S S S S S S S S
|------------------------------------|---------------------------------|
|------------------------------------|---------------------------------|
|------------------------------------|---------------------------------|
|------------------------------------|---------------------------------|
|-----5-7------5--7------5--7---5--7-|----5-7----5--7----5-7----5----7-|
|--0--------0---------0-------0------|--0-----0--------0-----0---------|

|
| ~~~ ~~ ~~
| +E. S S S S S S S S S Q S S Q E
|------------------------------------|---------------------------------|
|----------------12-\10--------------|-------------------------12b13r==|
|-(9)---------12--------11------9h11-|-12-------11-12-14---------------|
|---------/14--------------12S9------|---------------------------------|
|------------------------------------|---------------------------------|
|------------------------------------|---------------------------------|
 -----------------------------|   ~~~~~~~~

S S S S S S Q.
|------------------------------------------------------||
|------------------------------------------------------||
|------------------------------------------------------||
|------------------------------------------------------||
|------------------------------------------------------||
|---0-----2---3-----0---3-----5---6--------------------||

|
| +E +E +E +E +S +S E
|------------------------------------------------------||

|-(12)b13r==(12)b13r==(12)b13r==(12)b13r(12)b13r(12)---||
|------------------------------------------------------||
|------------------------------------------------------||
|------------------------------------------------------||
|----------------------------------------------------0-||



4th Chorus & Outro
  [E]Gtr II
E S S S S E S S S S E S S S S E S S S S
| | | | | | | | | | | | | | | | | | | |
Gtr I
E S S S S E S S S S E S S S S E S S S S
|-------------------------------|-------------------------------------|
|-------------------------------|-------------------------------------|
|--9-----9-9-9-9--5--5--5--5--5-|---6-------6--6--6--6--6--6--6--6--6-|
|-------------------------------|-------------------------------------|
|--7-----7-7-7-7--3--3--3--3--3-|---4-------4--4--4--4--4--4--4--4--4-|
|-------------------------------|-------------------------------------|

|
| Gtr III
| E S S S S E S S S S S S S S S S E S S S S
|-------------------------------|-------------------------------------|
|-------------------------------|-------------------------------------|
|--9-----9-9-9-9-11-11-11-11-11-|--11s==12-12-12-12-12-12-12-12-12-12-|
|-------------------------------|-------------------------------------|
|--7-----7-7-7-7--9--9--9--9--9-|---9s==10-10-10-10-10-10-10-10-10-10-|
|-------------------------------|-------------------------------------|

|
| Gtr IV
| >
| ~~~~~
| H. +H.
|-------------------------------|-------------------------------------|
|-15b17=========================|=(15)r-------------------------------|
|-------------------------------|-------------------------------------|
|-------------------------------|-------------------------------------|
|-------------------------------|-------------------------------------|
|-------------------------------|-------------------------------------|



  [D]  E  S  S  S  S  E  S  S  S  S
| | | | | | | | | |
E S S S S E S S S S
|--------------------------------|
|--------------------------------|
|--12-12-12-12-12-12-12-12-11-11-|
|--------------------------------|
|--10-10-10-10-10-10-10-10--9--9-|
|--------------------------------|

|
| E S S S S E S S S S
|--------------------------------|
|--------------------------------|
|-/16-16-16-16-16-14-14-14-14-14-|
|--------------------------------|
|-/14-14-14-14-14-12-12-12-12-12-|
|--------------------------------|

|
| W
|--------------------------------|
|--------------------------------|
|--------------------------------|
|--------------------------------|
|--------------------------------|
|--------------------------------|



  [Am6] E     S  S  S  S  E  S  S  S  S
|----------------------------------|
|----------------------------------|
|--5-----5--5--5--5--5--5--5--5--5-|
|----------------------------------|
|--3-----3--3--3--3--3--3--3--3--3-|
|----------------------------------|

|
| Gtr II
| E S S S S E S S S S
|----------------------------------|
|----------------------------------|
|-11----11-11-11-11-11-11-11-11-11-|
|----------------------------------|
|--9-----9--9--9--9--9--9--9--9--9-|
|----------------------------------|

|
| Gtr III
| S S S S S S E S S S S
|----------------------------------|
|----------------------------------|
|-12s11--9--9--9--9--9--9--9--9--9-|
|----------------------------------|
|-10s=9--7--7--7--7--7--7--7--7--7-|
|----------------------------------|



(E) (Cb5) (C#°)
E S S S S E S S S S E S S S S E S S S S
||---------------------------|-----------------------------------|
||o--------------------------|-----------------------------------|
||--9-9-9-9-9--5--5--5--5--5-|--6-----6--6--6--6--6--6--6--6--6--|
||---------------------------|-----------------------------------|
||o-7-7-7-7-7--3--3--3--3--3-|--4-----4--4--4--4--4--4--4--4--4--|
||---------------------------|-----------------------------------|

|
| E S S S S E S S S S E S S S S E S S S S
||---------------------------|-----------------------------------|
||o--------------------------|-----------------------------------|
||--9-9-9-9-9--9--9--9--9--9-|--9-----9--9--9--9--9--9--9--9--9--|
||---------------------------|-----------------------------------|
||o-7-7-7-7-7--7--7--7--7--7-|--7-----7--7--7--7--7--7--7--7--7--|
||---------------------------|-----------------------------------|

|
| E S S S S E S S S S S S S S S S E S S S S
||---------------------------|-----------------------------------|
||o--------------------------|-----------------------------------|
||--9-9-9-9-9-11-11-11-11-11-|-11s12-12-12-12-12-12-12-12-12-12--|
||---------------------------|-----------------------------------|
||o-7-7-7-7-7--9--9--9--9--9-|--9s10-10-10-10-10-10-10-10-10-10--|
||---------------------------|-----------------------------------|



  [Em7]  E  S  S  S  S [Dsus4] E  S  S [D] S  S   [Am6] E     S  S  S  S  E  S  S  S  S 15x
|--------------------------------|-----------------------------------||
|--------------------------------|----------------------------------o||
|--12-12-12-12-12-12-12-12-11-11-|--5-----5--5--5--5--5--5--5--5--5--||
|--------------------------------|-----------------------------------||
|--10-10-10-10-10-10-10-10--9--9-|--3-----3--3--3--3--3--3--3--3--3-o||
|--------------------------------|-----------------------------------||

|
| E S S S S E S S S S E S S S S E S S S S 15x
|--------------------------------|-----------------------------------||
|--15-15-15-15-15-15-15-15-15-15-|----------------------------------o||
|--------------------------------|-11----11-11-11-11-11-11-11-11-11--||
|--12-12-12-12-12-12-12-12-12-12-|-----------------------------------||
|--------------------------------|--9-----9--9--9--9--9--9--9--9--9-o||
|--------------------------------|-----------------------------------||

|
| E S S S S E S S S S S S S S S S E S S S S 15x
|--------------------------------|-----------------------------------||
|--------------------------------|----------------------------------o||
|-/16-16-16-16-16-14-14-14-14-14-|-12s11--9--9--9--9--9--9--9--9--9--||
|--------------------------------|-----------------------------------||
|-/14-14-14-14-14-12-12-12-12-12-|-10s=9--7--7--7--7--7--7--7--7--7-o||
|--------------------------------|-----------------------------------||


Performance Notes
-----------------

1st Guitar Solo:

Since all the notes from bar 76-83 are played on the 12 fret of the b-string using a pitch

shifter (or similiar) I've notated the sounding pitch instead of the played fret (I made an

atempt to use artificial harmonics to clarify this but they messed up the playback). I've

notated under each of the shifted notes how many steps it should be increased in pitch

(one, one and a 5th or two octaves).

Duration Legend
---------------
W - whole; H - half; Q - quarter; E - 8th; S - 16th; T - 32nd; X - 64th; a - acciaccatura

+ - note tied to previous; . - note dotted; .. - note double dotted
Uncapitalized letters represent notes that are staccato (1/2 duration)
Irregular groupings are notated above the duration line
Duration letters will always appear directly above the note/fret number it represents the
duration for. Duration letters with no fret number below them represent rests. Multi-
bar rests are notated in the form Wxn, where n is the number of bars to rest for. Low
melody durations appear below the staff

Tablature Legend
----------------


h - hammer-on
p - pull-off
b - bend
pb - pre-bend
r - bend release (if no number after the r, then release immediately)
/\ - slide into or out of (from/to "nowhere")
s - legato slide
S - shift slide
- natural harmonic
[n]  - artificial harmonic
n(n) - tapped harmonic
~ - vibrato
tr - trill
T - tap
TP - trem. picking
PM - palm muting
\n/ - tremolo bar dip; n = amount to dip
\n - tremolo bar down
n/ - tremolo bar up
/n\ - tremolo bar inverted dip
= - hold bend; also acts as connecting device for hammers/pulls
<> - volume swell (louder/softer)
x - on rhythm slash represents muted slash
o - on rhythm slash represents single note slash

Misc Legend
-----------

| - bar
|| - double bar
||o - repeat start
o|| - repeat end
*| - double bar (ending)
: - bar (freetime)
$ - Segno
& - Coda
Tempo markers - = BPM(8/16=s8/s16), where s8 = swing 8ths, s16 = swing

16ths

Important: The song above is NOT stored on the Chordie server. The original song is hosted at www.xguitar.com. Chordie works as a search engine and provides on-the-fly formatting. Chordie does not index songs against artists'/composers' will. To remove this song please click here.

Text color:
Chord color:
Chord grids: 
Font size:    
Page size: 

Aadd9 Am Am6 Amadd9 Badd11 Bm Bm11 Bmadd11 C#m C#sus2 D Db5 Dm Dsus2 Dsus4 E E5 Em Em7 Emadd9 F F#/C# F#m7b5 F5 G#m G#m/Eb G/B
variations - click chord images

Login - add to songbook

Transpose chords

Tuning

Rating click stars to rate

Layout
Accuracy

SHARE PAGE  




You need to log in to post comments