Wreath

Opeth


Opeth - Wreath Submitted By: eyeh8thugz EMail: bobby360_bd50@hotmail.com Deliverance Tabbed by Mr. Niel's Nixon Era Fuzz Pedal
More tabs at Opeth's Domain: http://opeth.darkwood.com
*I can't promise how accurate this one will be since I don't have a guitar.com interview to study, but corrections are always welcome. Once again this is mostly chords, listen to the CD for help with the Rhythm.
Opening Riff =======
1:-----------------------|-------------|--------------------- 2:-----------------------|-------------|--------------------- 3:-----------------------|-------------|--------------------- 4:-/7-7-7-6-3-/7-7-7-6-3-|-8-8-7-------|-------2---2--------- 5:-----------------------|-------/7-7-6|-------1---1--------- 6:-/5-5-5-4-1-/5-5-5-4-1-|-6-6-5-/8-8-7|-0-0-0---0---0-3-5-6-*Palm mute E string
"Old Memories" Riff ==========
1:---------------------------------------------------------------- 2:---------------------------------------------------------------- 3:-/9-9-9-----------9-9-9---------/8-8-8------------------/10-10-- 4:----------2-2-2----------2-2-2----------2-2-2--/10-7-4---------- 5:-/7-7-7---2-2-2--/7-7-7--2-2-2--/6-6-6--2-2-2-----------/8--8--- 6:-(0)------0-0-0----------0-0-0----------0-0-0--/8--5-2---------- Guitar1
1:---------------------------------------------------------------- 2:------------------------------------------------------------12b- *(bend and release w/vibrato 4th time) 3:---------------------------------------------------------------- 4:--7h9-----------9/10\9-----------8------------------8--9-------- 5:------------------------------------------------10-------------- 6:---------------------------------------------------------------- guitar2
Change for next riff =============== 1:----------------------------- 2:----------------------------- 3:----------------------------- 4:----------------------------- 5:--4---4-5-7-5-7-b8r7-5------- 6:-----------------------6-3-5-
1:-------------------------------------------------- 2:-------------------------------------------------- 3:-17--16--13-14--19---20-17---18---19-16----18-15-- 4:-------------------------------------------------- 5:-15--14--11-12--17---18-15---16---17-14----16-13-- 6:-------------------------------------------------- guitar 1
1:-------------------------------------------------- 2:-------------------------------------------------- 3:----------------5------------4--------4--4--4----- 4:-7--------------5------------4--------4--4--4--4-- 5:-7--------------3------------2--------2--2--2--4-- 6:-5------------------------------------3--0--3--2-- guitar 2
"Endless Night" riff ==================
1:-------------|-------------- 2:-------------|-------------- 3:-7-9-10-12-13|-7-9-10\-7--4- 4:-------------|---------7--6- 5:-5-7-8--10-11|-5-7-8-\-5--6- 6:-------------|------------4- guitar 1
Guitar 2 plays:
Dm/Fm *(tacet on the first Dm) Dm/Fm Dm/Fm Dm/Abm
1:------------- 2:------------- 3:--4-6-7-9-10- 4:------------- 5:--2-4-5-7-8-- 6:------------- guitar 1
1:------------- 2:------------- 3:--7-9-/14---- 4:------------- 5:--5-7-/12---- 6:------------- guitar 2
1:---- 2:---- 3:-9--
4:---- 5:-7-- 6:-0-- both guitars over Ebow part
Ebow Lead ---------
1:------15--17--19----22--19---15--17--19- 2:-17------------------------------------- *use the cd for rhythm help! 3:---------------------------------------- 4:---------------------------------------- 5:---------------------------------------- 6:----------------------------------------
"Human Harvest Burning" riff ==========================
1:--------------------------------------------------------- 2:--------------------------------------------------------- 3:--------------------------------------------------------- 4:--4-4--4--4-4--4--5-5--------------2--1-1h2p1------------ 5:--4-4--4--4-4--4--5-5--1p0---0h1p0------------3-2-0-2h3-- 6:--2-2--0--2-2--0--3-3------0-----------------------------
*let ring------| 1:---------3---------------------- 2:---------3---------------------- 3:---------3---------------------- 4:-5-------------5---------------- 5:-5-------------5---------------- 6:-3-------------3----------3-5--6 guitar 1 *listen to the Cd for rhythm help! 1:--------------------------------- 2:-12-11--------------------------- 3:--------12-12--12/13\12---------- 4:-9--8---------------------8-10-11 5:--------10-10--10/11\10---------- 6:--------------------------------- guitar 2
Clean Part ======== 1:---3----------- 2:-----3--------- 3:-------3------- 4:---------3h5--- 5:-------------4- 6:-3------------- (guitar 2 fades out with G octave chord in 3rd postion in the beginning of passage and fades in at the end near the solo with the same chord)
Solo Rhthym ==========
1:---------------------------- 2:---------------------------- 3:---------------------------- *listen to the Cd, it's not too tricky. 4:---------------------------- 5:---------------------------- 6:--0h2-----------0h3----0h2--
then
1:-----------|------------------------------------------------ 2:-----------|------------------------------------------------ 3:-----------|-6--5--------------/9-9-9-9-------------9-9-9-9- 4:-2-2-2--2--|-6--5--------2-2-------------------------------- 5:-1-1-1--1--|-4--3--------2-2---/7-7-7-7------2-2---/7-7-7-7- 6:-0-0-0--0--|---------3p0-0-0-------------3p0-0-0------------ *palm mute
"Staring Right Back" Riff ===================== 1:--------------------------------------------------- 2:--------------------------------------------------- 3:-4---4---4---4---4---4---4---/11--9----15---13--12- 4:-4---4---4---4---4---4---4------------------------- 5:-2---0---2---0---2---0---2---/9---7----13---11--10- 6:----------------------------------0----0----0---0--
Acoustic Bit ---------
1:---------0-------------- 2:-----------0------------ 3:-------------8------8--- 4:-------9-------9------9- 5:-----7------------------ 6:-9---------------7------ w/delay? *(I want everyone to study this part, cause I don't think it's right!)
Outro riff =========
1:--------------------------------------------- 2:--------------------------------------------- 3:--------------------------------------------- 4:----------------2-3-5-5/6-6--5-6-8-8/9*vibrato-- 5:-4--4-5-7-5-7b------------------------------- 6:---------------------------------------------
1:----------------------------- 2:----------------------------- 3:----------------------------- 4:---------------------------2- 5:-----8---------------------2- 6:--0----7p0-0-13p0-5p0-3p0--0- *Palm mute pull offs







variations - click chord images
Transpose chords:
Tuning:
Cool service:
View: Size:
A  A  A
Rating:
Layout:
  • Currently 0/5 Stars.
  • 1
  • 2
  • 3
  • 4
  • 5
 
Accuracy:
  • Currently 3.9/5 Stars.
  • 1
  • 2
  • 3
  • 4
  • 5
 
click stars to rate
Chordie recommends:
Get acoustic guitar lessons and electric guitar lessons at JamPlay.com
Songbook:
Login to add this song to your songbook
Support the artist
Preview/buy this song
MSN Music
Why this non-profit ad?

 
login to add comments/video/corrections