Guitar Tabs, Chords and Lyrics


Black Rose Immortal    Opeth



Opeth - Black Rose Immortal
Tabbed By: StrapingYoungLad13
Submitted by: Himmelfarht
Email: this_is_the_prophecy@hotmail.com

Tuning: Standard (E A D G B E)

"in the name of desperation
 i call your name
 a lamentation i sigh
 again and again"

 gtr1:play this or a variation of this for 5 times				
|-----------------------2-1-11111-11111-11111-1-5-4-44444-44444-44444-4
|-3-33333-33333-33333-3------------------------------------------------
|----------------------------------------------------------------------
|----------------------------------------------------------------------
|----------------------------------------------------------------------
|----------------------------------------------------------------------

-----------------------------|-----|
-5-6-66666-66666-66666-6-2---|--3--|
-----------------------------|-----|
-----------------------------|-----|
-----------------------------|-----|
-----------------------------|-----|

|gtr2 plays an octave lower:							
|----------------------------------------------------------------------
|----------------------------------------------------------------------
|-----------------------------------------------2-1-11111-11111-11111-1
|-----------------------4-3-33333-33333-33333-3------------------------
|-5-55555-55555-55555-5------------------------------------------------
|----------------------------------------------------------------------

-----------------------------|-----|
-----------------------------|-----|
-----------------------------|-----|
-2-3-33333-33333-33333-3-----|-----|
-------------------------4---|--5--|
-----------------------------|-----|


riff2

"spiritual eclipse
 the gateways are closed for me to seek"

two times
gtr1

|----------------------------------------------------------------------
|----------------------------------------------------------------------
|-2-2-2-----------------0-------4-4-5-4-4-4-4\-------------------------
|-------3-3-3-0-0-0-0-0---2-2-2-------------------------0-0-2-3-3-3-3-
|-------------------------------------------------1-1-1----------------
|----------------------------------------------------------------------

                            2nd end
----------------------------|-----|
----------------------------|-----|
2-0-------3\--2-------------|-----|
---0-0-0-------4-0-0-4-0-4--|--5--|
----------------------------|-----|
----------------------------|-----|

gtr2
|----------------------------------------------------------------------
|----------------------------------------------------------------------
|-------------------------------------------------------3-3-3-5-5-5-3--
|-0-0-0-0-0-0-0-0-0-0-2-3-2-2-2-2-2-2-2-2-2-2-2-3----------------------
|-------------------------------------------------1-1-1----------------
|----------------------------------------------------------------------

----------------------------|-----|
----------------------------|-----|
-2--------------------------|-----|
---------------2-2-2-2------|-----|
---0-0-0-4---5-----------4--|--5--|
----------------------------|-----|

riff3

 gtr1:play 8 times
|-----------------------------------------------|
|-----------------------------------------------|
|-----------------------------------------------|
|--0---0-0---3-2-3---------0---0-0---3-2---3-5--|
|----------3---------3-------------3------------|
|-----------------------------------------------|

 gtr2
 1.	                                            2.3.4.5.6.7.8.
|---------------------------------------------------|------------------
|---------------------------------------------------|------------------
|--7-----------------5-5-5-------------------5-5-5--|--2---2-2---------
|--7-----------------5-5-5-------------------5-5-5--|----------5-3-5---
|--5-----------------3-3-3-------------------3-3-3--|------------------
|---------------------------------------------------|------------------

-----------------------------|
-----------------------------|
--------2---2-2-----------5--|
3-2-------------5-3-5---3----|
-----------------------------|
-----------------------------|
1st interlude
 gtr 1
 1.2.				3.4.5.6.
|--------------------|------------------------------------------------|
|--------------------|------------------------------------------------|
|----4-----2-2-0-2---|-----4-----2-2-0-2---------4-----2-2-0-2--------|
|--2-----2-----------|---2-----2---------------2-----2----------------|
|0-----0-----0-------|-0-----0-----0---------0-----0-----0------------|
|------------------3-|-------------------3---------------------3------|
|gtr 2
|				3.4.5.6.	               3.5.
|--------------------|--------------------------------------|---------|
|--------------------|--------------------------------------|---------|
|--------------------|-2---2-2p0-------------2---4-5p4-2-4p0-2-4------|
|--------------------|-----------2-------2------------------|---------|
|--------------------|-------------5p4-5--------------------|---------|
|--------------------|--------------------------------------|---------|
								
|4.6.     |
|---------|
|---------|
|--1------|
|---------|
|---------|
|---------|
riff4

gtr1
 1.7.                        1.7.
|---------------------------|---------------------------|
|--dump---------------------|---------------------------|
|--2------------------------|---------------------------|
|--2------------------------|---------------------------|
|--0------------------------|---------------------------|
|---------------------------|---------------------------|

 2.      8.                  2.8.
|---------------------------|---------------------------|--------------
|--hold--hold---------------|---------------------------|--------------
|--2-----2------------------|---------------------------|--------------
|--2-----2------------------|------------------2---2-3--|--------------
|--0-----0------------------|--0-2-3-2-3-5-3-5---5------|--------------
|---------------------------|---------------------------|--------------

 3.4.5.6.9.10.11.12.         3.4.5.6.9.10.11.            12.
|---------------------------|---------------------------|--------------
|---------------------------|---------------------------|--------------
|---------------------------|---------------------------|--------------
|--2---2-2(2-2)2------------|--2---2--------------------|--------------
|----------------5-3-0-2-0--|--------0-2-3-5-3-0-2------|--0-2-3-2-3-5-
|---------------------------|---------------------------|--------------
               12.end
-------------|----------------|
-------------|----------------|
-------------|----------------|
----2---2-3--|--2-----2-------|
3-5---5------|----------------|
-------------|----------------|
gtr2






   1.3.4.5.6.7.9.10.11.        2.8.12.                   12.end
|---------------------------|---------------------------|--------------
|--------------5-3---3------|--------------5-3---3------|--------------
|--2---2-2---2-----5---5-4--|--2---2-2---2-----5--------|--5-4-2-4-2---
|----------5----------------|----------5----------------|------------5-
|---------------------------|---------------------------|--------------
|---------------------------|---------------------------|--------------

-------------|-----|
-------------|-----|
2------------|-----|
--5-2-5-2-0--|--2--|
-------------|-----|
-------------|-----|

riff5

gtr1

|----------------------------------------|
|--.-----.-----.-.-.-------------.-.-.---|
|--2-22222-22225-5-5-.-----.-----7-7-7---|
|--2-22222-22225-5-5-3-33333-33337-7-7---|
|--0-00000-00003-3-3-3-33333-33335-5-5---|
|--------------------1-11111-1111--------|

gtr2
 1.
|----------------------------------------|
|--------------------------------.-.-.---|
|--.----------------------------101010---|
|--7----------------------------101010---|
|--7-----------------------------8-8-8---|
|--5-------------------------------------|

 2.3.
|------------------------------------------|
|--------------.-.-.-.-----.------.--.--.--|
|--.-----.----.9-9-9-7-77777-777710-10-10--|
|--7-77777-77779-9-9-7-77777-777710-10-10--|
|--7-77777-77777-7-7-5-55555-5555-8--8--8--|
|--5-55555-5555----------------------------|

riff 5b

"in the night...
 a veil of stars watching
 my shadow is born from light
 the light of the eye...

play 4 times





 gtr1
|----------------------------------------------------|
|----------------------------------------------------|
|--2-2-2-2-2-2-5-5-5-5-5-5-------------7-7-7-7-7-7---|
|--2-2-2-2-2-2-5-5-5-5-5-5-3-3-3-3-3-3-7-7-7-7-7-7---|
|--0-0-0-0-0-0-3-3-3-3-3-3-3-3-3-3-3-3-5-5-5-5-5-5---|
|--------------------------1-1-1-1-1-1---------------|
|gtr 2						
|----------------------------------------------------|
|----------------------------------------------------|
|--------------9---9-9-9-9------------10--10101010---|
|--7-7-7-7-7-7-9---9-9-9-9-7---7-7-7-710--10101010---|
|--7-7-7-7-7-7-7---7-7-7-7-7---7-7-7-7-8---8-8-8-8---|
|--5-5-5-5-5-5-------------5---5-5-5-5---------------|


riff 6
 ...in darkness"

	 gtr1
	 1.2.3.4.5.6.7.
|-----|----------------------------|
|-----|--3-3-3-1-3-----------------|
|-----|------------2-1-1-1---------|
|--3--|--------------------3-------|
|--3--|--------------------3-------|
|--1--|--------------------1-------|
	|8.				
	|----------------------------|
	|--3-3-3-1-3-----------------|
	|------------2-------.-------|
	|--------------6---\\3-------|
	|--------------6---\\3-------|
	|--------------4---\\1-------|
	|				
	|gtr2				
	|1.2.4.5.6.			
	|----------------------------|
	|----------------------------|
	|----------------------------|
	|--------------------3-------|
	|--5-5-5-3-5---------3-------|
	|------------5-4-4-4-1-------|

	|3.7.8.			
	|--1-1-1-0-1-----------------|
	|------------3---------------|
	|----------------------------|
	|--------------------3-------|
	|--------------------3-------|
	|--------------4-4-4-1-------|






2nd interlude - acoustic guitar(s)

|----------4-------------4-------5-------0---------------0----------|
|----------4-4-----------4-------5-------0---0-----------0---0------|
|--------4-----4-------4-------5-------0-------0-------0-------0----|
|--6---6---------6---6-----7-7-----2-2-----------2-2-2-----------2--|
|--6-------------6---------7-------2---------------2----------------|
|--4-------------4---------5-------0---------------0----------------|

                                  1.2.3.                            4.
|--------6-------------6-----------------5-------------5----------|-5-|
|--------6-6-----------6---6-------------5-5-----------5---5------|-5-|
|------6-----6-------6-------6---------5-----5-------5-------5----|-5-|
|8---8---------8---8-----------8-7---7---------7---7-----------7--|-7-|
|8-------------8-----------------7-------------7------------------|-7-|
|6-------------6-----------------5-------------5------------------|-5-|

riff7

"over troubled waters memories soar
 endlessly, searching night and day
 the moonlight caresses a lonely
 with the calmness of a...
gtr1
 1.                                                                 1.2.
|------------------------------------------------------------------|---
|------------------------------------------------------------------|---
|----------.-------------------------.-.-------------.-.-----------|---
|----------6-------------7-7-7---2---2-2-2-----2-----2-2-2---2-----|---
|----------6-------------7-7-7---2---2-2-2-----2-----2-2-2---2-----|---
|----------4-------------5-5-5---0---0-0-0-----0-----0-0-0---0-----|---

---------------------------------------------------------------|
---------------------------------------------------------------|
---------------------------------------------------------------|
---------------------------------------------------------------|
1-1-1-1-1-1-1-1---1-1-3-3-1-1-0-0-0-0-0-0-0-0-0---0-0-0-0-0-0--|
---------------------------------------------------------------|
 2.3.4.
|------------------------------------------------------------------|---
|------------------------------------------------------------------|---
|------------------------------------.-.-------------.-.-----------|---
|--------------------------------2---2-2-2-----2-----2-2-2---2-----|---
|--------------------------------2---2-2-2-----2-----2-2-2---2-----|---
|--4-4-4-4-4-4-4-4---4-4-4-5-5-5-0---0-0-0-----0-----0-0-0---0-----|---

-----------------------------|---------------------------------|
-----------------------------|---------------------------------|
-----------------------------|---------------------------------|
-----------------------------|---------------------------------|
1-1-1-1-1-1-1-1---1-1-1-1-1-1|0-0-0-0-0-0-0-0-0---0-0-0-0-0-0--|
-----------------------------|---------------------------------|



gtr2
 *play this note only the first time
  1.2.				
|------------------------------------------------------------------|---
|------------------------------------------------------------------|---
|---*--------------------------------.-.-------------.-.-----------|---
|--666-6-6-6-6-6-6---6-6-7-7-7---2---2-2-2-----2-----2-2-2---2-----|---
|--------------------------------2---2-2-2-----2-----2-2-2---2-----|---
|--------------------------------0---0-0-0-----0-----0-0-0---0-----|---
                             1.2.
-----------------------------|---------------------------------|
-----------------------------|---------------------------------|
3-3-3-3-3-3-3-3--3-3-5-5-3-3\|-2-2-2-2-2-2-2-2---2-2-2-2-2-2---|
-----------------------------|---------------------------------|
-----------------------------|---------------------------------|
-----------------------------|---------------------------------|

 3.4.
|----------------------------------------------------------------------
|--4-4-4-4-4-4-4-4-------5-5-5-----------------------------------------
|--------------------------------4-------4-----4-----------------------
|----------------------------------------------------------------------
|----------------------------------------------------------------------
|----------------------------------------------------------------------

---------------------------------------------------------------|
6-6-6-6-6-6-6-6---6-6-6-6-6-6\--5-5-5-5-5-5-5-5---5-5-5-5-5-5--|
---------------------------------------------------------------|
---------------------------------------------------------------|
---------------------------------------------------------------|
---------------------------------------------------------------|

3rd short interlude:

 ...whisper"

|--------5-------4-------0--|
|--------5-------4-------0--|
|------5-------4-------0----|
|--7-7-----6-6-----2-2------|
|--7-------6-------2--------|
|--5-------4-------0--------|
riff8

"i wear a naked soul
 a blank face in the streaming water"
repeat 4 times
 gtr1
|--------------------------------------------------------------|
|------------------------------------------------------1-------|
|--------1-1-----------------------------------0-2-------2-----|
|--2---------3-3-2-2-----3-3-2-----------2-3-------2-------2---|
|--2---------------------------1-4-5---------------------------|
|--0-----------------------------------------------------------|


|gtr2									
|--------------------------------------------------------------|
|--------------------------------------------------------------|
|--------4-4-5-5-4-4-----------------------2-4-2-4-5---4-2-1---|
|--2---------------------3-3-2-0-2-3---------------------------|
|--------------------------------------------------------------|
|--------------------------------------------------------------|

riff 9
repeat 4 times

 gtr 1
|----------------------------------------------------------------------
|----------------------------------5-----5-5---3-1-0-----1-3->2nd & 4th time
|--------------------------------5-------------------------0->1st & 3rd time
|----------2---2-----------2---2---------------------------------------
|--0-----0-------------------------------------------------------------
|------------------3-----3---------------------------------------------

|gtr 2									
|----------------------------------------------------------------------
|------------------------------0-0-1-----1-1---------------------------
|----------------------------------------------4-2-0-----2-4-----------
|----------------2-----------------------------------------------------
|--3-----3-3---5---5-----3---------------------------------------------
|--------------------------3-------------------------------------------

repeat riff 8 4 times

"it is cold in here
 frost scar my coat with...

 ...dust"

|-----|
|-----|
|-----|
|--2--|
|--2--|
|--0--| let ring



 gtr 1
|----------------------------|
|----------------------------|
|----------------------------|
|--22222222-2223-0-22222222--|
|----------------------------|
|----------------------------|
|gtr 2			
|----------------------------|
|----------------------------|
|----------------------------|
|--2----------------------2--|
|--2----------------------2--|
|--0----------------------0--|


riff 10

gtr 1
 1.2.3.4.7.8.9.10.11.12.15.16.17.18.
 19.20. 		                  5.6.13.14.
|---------------------------------|-----------------------------------|
|---------------------------------|-----------------------------------|
|---------------------------------|-----------------------------------|
|2-2-2-2-2-2-2-2---2-2-2-3---0----|-----------------------------------|
|---------------------------------|--5-5-5-5-5-5-5-5---5-5-5-6---3----|
|---------------------------------|-----------------------------------|
|gtr 2					
|------------------------------*--|-----------------------------------|
|--------------6---6-6-6-5---3h5--|----------------4---4-4-4-3---1h3--|
|2h4h5p2h4h5p2--------------------|--0h2h3p0-2h3p0--------------------|
|---------------------------------|-----------------------------------|
|---------------------------------|-----------------------------------|
|---------------------------------|-----------------------------------|
*not to be played the last time

then
|----------------|
|----------------|
|----------------|
|--2-----2-------|
|--2-----2-------|
|--0-----0-------|
1st solo
*i broke the solo into sections along with the rhythm so it's easier to make out if you're listening to the song at the same time
 solo gtr
|--12---12---12/15-13-12-13-----12-13-15-13-12-13-12-10-12-10----10----
|-------------------------------------------------------------13----13-
|----------------------------------------------------------------------
|----------------------------------------------------------------------
|----------------------------------------------------------------------
|----------------------------------------------------------------------

------------------------|
12-13-12-10-12-10-------|
------------------12-9--|
------------------------|
------------------------|
------------------------|



|rhythm gtr		
|----------------------------------------------------------------------
|----------------------------------------------------------------------
|----------------------------------------------------------------------
|---2----2-------5--3--2--3------------2-----------------2-------------
|---2----2-------5--3--2--3------------2-----------------2-------------
|---0----0-------3--1--0--1------------0-----------------0-------------

------------------------|
------------------------|
------------------------|
----2----------------2--|
----2----------------2--|
----0----------------0--|
solo
|-----------------------------------------------|
|-----------------------------------------------|
|---------7-9-10-9------------------------------|
|--7-9-10------------9-10p9-7---10---9---7------|
|--------------------------------------------7--|
|-----------------------------------------------|
|rhythm						
|-----------------------------------------------|
|-----------------------------------------------|
|-----------------------------------------------|
|--7-------------7---------------7---5---3---2--|
|--7-------------7---------------7---5---3---2--|
|--5-------------5---------------5---3---1---0--|
solo
|-----------12----------------10----------------------|
|--10-12-13----13-12-10-12-13----13-12----------------|
|----------------------------------------/9--8--------|
|-----------------------------------------------9--7--|
|-----------------------------------------------------|
|-----------------------------------------------------|
|rhythm									
|-----------------------------------------------------|
|-----------------------------------------------------|
|--4------------------2-------------------7--5--4--2--|
|--4------------------2-------------------7--5--4--2--|
|--2------------------0-------------------5--3--2--0--|
|-----------------------------------------------------|
solo
|---------------------------|
|--------11-----------------|
|---------------/10-/8------|
|--8-------------------9-8--|
|---------------------------|
|---------------------------|
|rhythm				
|---------------------------|
|---------------------------|
|--3------3-------3------3--|
|--3------3-------3------3--|
|--1------1-------1------1--|
|---------------------------|

riff 11

repeat 8 times

 gtr1
	                                1.3.5.7.
|----------------------------------------|------------|
|----------------------------------------|------------|
|----------------------------------------|------------|
|----------.-----------.---3---3-3-----1-|-1-1--------|
|--1---1-3p1---3---3-3p1-----------------|-----3------|
|----------------------------------------|------------|
|2.4.6.8.    |
|------------|	
|------------|
|------------|
|-4-4--------|
|------------|
|------------|
 gtr 2								
|------------------------.----------------------------|
|------------4-6---6---4h7-6---6-6-6-6-4---4-4--------|
|--3---3---3-----------------------------------6-4----|
|-----------------------------------------------------|
|-----------------------------------------------------|
|-----------------------------------------------------|

...ending with:

gtr2
|--------------------------|
|--------------------------|
|--------------------------|
|---8---6---5-let ring...--|
|---8---6---5--------------|
|---6---4---3--------------|



"eyes attach to your mute portrait
 we spoke only through thoughts
 together we gazed, awaited
 hours brouhgt thirst, and the rising sun"

4th interlude

|---------------------------------------------3--|
|---------------------------------------------3--|
|------5--5--10--8--7--5/8--7----------5------5--|
|----5---------------------------5--3-----4---5--|
|--3------3---8--6--5--3/6--5----------3---------|
|--------------------------------3--1-----2------|

play 4 times:



 gtr1
|-------------------------------------------------------------------|
|-------------------------------------------------------------------|
|--------------------------------------------2----------------------|
|----------------------0h2-0h2-1-----------3-------0h1-0h1-0h1-3----|
|--5-3-------------1-3-------------3-1---3--------------------------|
|------3-----1-3-----------------------1----------------------------|
|gtr2									
|-------------------------------------------------------------------|
|-------------------------------------------------------------------|
|----------------------3\2-0h2-2---2-3-3/5---5-5---3p2-3p2-0h2-0h2--|
|-------------------------------------------------------------------|
|-------------------------------------------------------------------|
|-------------------------------------------------------------------|

play 6 times:

"sunbirds leave their dark recesses
 shadows gild the archways"

 gtr1
 1.      2.3.
|-------|--------------------------------------------------------------
|-------|--------------------------------------------------------------
|-------|------0-2-3---------------------------------------------------
|--3-1--|--0-3-------------------0-1-------------1-1/3-----1h3-1p0-0h1-
|-------|----------------1-3-------------0-1---------------------------
|-------|--------------------------------------------------------------

-----|
-----|
-----|
-----|
5p3--|
-----|

 gtr2   	
  |----------3--------------------------------------------------------|
  |--------3----------------------------------------------------------|
  |------5---------------5-------------2-3----------------------------|
  |----5---------------5----------------------------------------------|
  |--------------------------------------------------3h5-3p1-0-----1p0|
  |-------------------------------------------------------------------|

repeat 1st part 4 times

repeat 2nd part 4 times...

"do not turn your face towards me
 confronting me with my loneliness
 you are in a forest unknown
 the secret orchard
 and your voice is vast and achromatic...

 ...but still so precious"


|-----|
|-----|
|-----|
|--2--|
|-----|
|--0--|

then...

gtr1
 1.2.3.4.                      1.2.3.      3.
|-----------------------------|-----------|---------------|
|-----------------------------|-----------|---------------|
|-----------------------------|-----------|---------------|
|----------------------5h7-7--|--7-5\4-4--|----.----------|
|----------5h7-7-----7--------|-----------|--5p3-5--------|
|--0-----0--------------------|-----------|---------------|

gtr2
 3.                                        3.
|-----------------------------------------|---------------|
|--5-------3---5-----------3--------------|---------------|
|-4-------2---4----------2----------------|---------------|
|----------------------0------------------|----------5----|
|-----------------------------------------|--------5---5--|
|-----------------------------------------|------3--------|

 4.
|----------------------------------5------|
|--5-------3/--5-------------------5------|
|-4-------2/--4------------------5--------|
|------------------------------7----------|
|----------------------------7------------|
|--------------------------5--------------|

riff 13

play 4 times

"lullaby of the crescent moon took you
 mesmerized, its kaleidoscopic face"

 gtr1
|------------------------------------------------------------------|
|------------------------------------------------------------------|
|------------------------------------------------------------------|
|----------------------------------------------------.-------------|
|--7-----------7-------------7\5---------------------5---5---------|
|--7-----------7-------------7\5---------------------5---5---------|
|gtr2						
|------------------------------------------------------------------|
|------------------------------------------------------------------|
|------------------------------------------------------------------|
|--2-----2-----2---------2---5/7-7-----7-5\4-4-------.-------------|
|----------2-5---------------------------------------5---5---5-----|
|------------------------------------------------------------------|

riff 13

play 4 times

 gtr1
|------------------------------------------------------------------|
|------------------------------------------------------------------|
|----------------------------4-5-4-2-------------------------------|
|--5-----5-4p2-5---------5-----------5-4-2-4---------.-------2/4---|
|--------------------------------------------5-------2---2---------|
|------------------------------------------------------------------|
|gtr2							
|------------------------------------------------------------------|
|------------------------------------------------------------------|
|------------------------------------------------------------------|
|--2-----2---0-2---------2---5/9-7-----7-5h7-4-------.-------------|
|--2-------2-----------------------------------------5---5---5-----|
|--0---------------------------------------------------------------|

riff 14

"granted you a hollow stare
 another soul within the divine herd"

 1.3.
 gtr1
|----------------------------------------------------------------|
|----------------------------------------------------------------|
|------------------------------7-----7-7-7-7-------7-------------|
|------------------------------7-----7-7-7-7-------7---5-5-5-----|
|--7-----------7-----------7\5-5-----5-5-5-5-------5---5-5-5-----|
|--7-----------7-----------7\5-5-----5-5-5-5-------5---5-5-5-----|
|gtr2						
|----------------------------------------------------------------|
|----------------------------------------------------------------|
|------------------------------2-----2---------------------------|
|--5-----5-4p2-4-------4---4/5---------5\4-4---------------------|
|--------------------------------------------------5---2---------|
|----------------------------------------------------------------|

 2.4.
 gtr1
|----------------------------------------------------------------|
|----------------------------------------------------------------|
|----------------------------------------------------------------|
|----------------------------------------------------------------|
|--7-----------7-----------7\5-5-----------9---------------------|
|--7-----------7-----------7\5-5-----------9---------------------|
|gtr2							
|----------------------------------------------------------------|
|----------------------------------------------------------------|
|------------------------------2-----2-----4---------------------|
|--2-----2-4-5-4-------4---4-5---------5-4-----------------------|
|----------------------------------------------------------------|
|----------------------------------------------------------------|


riff 15

"i have kept it
 the amaranth symbol
 hidden inside the golden shrine
 until we rejoice in the meadow
 of the end
 when we both walk the shadows
 it will set ablaze and vanish...

 gtr1
|----------------------------------------------------------------------
|----------------------------------------------------------------------
|--4-------------------------------------------------------------------
|--4-------------------------------------2-4-----------------------2---
|--2---------------------------2p0---2-5---------------------------2---
|----------------------------------3-------------3-3---------------0---

-------------------------------------------------------------|
-------------------------------------------------------------|
-------------------------------------------------------------|
----5--------------------------------------------------------|
----------------4h5-4-----0-2--------------------------------|
----------2-3-3----------------------------------------------|

|gtr2
|--------------------------------------------------2p0-----------------
|--2h3-3-3-3-----3-3---2p0-2-------2h3-3-3-3-----3-----2h3-------------
|------------------------------4p2-------------------------4-------2h4-
|----------------------------------------------------------------------
|----------------------------------------------------------------------
|----------------------------------------------------------------------

-------------------------------------------------------------|
------------3---------------------2-3-2-----------2-3-2------|
4-4-4-----4-----4p2-4---2-------4-------4-------4-------4----|
--------------------------4---4-----------4---4-----------4--|
-------------------------------------------------------------|
-------------------------------------------------------------|

5th interlude
 ...black rose immortal"
 gtr1
|--------------------------------------------------2p0-----------------
|--2h3-3-3-3-----3-3---2p0-2-------2h3-3-3-3-----3-----2h3-------------
|------------------------------4-2-------------------------4-------2h4-
|----------------------------------------------------------------------
|----------------------------------------------------------------------
|----------------------------------------------------------------------

--------------------------------------------0-------|
------------3---------------------2-3p2------0------|
4-4-4-----4-----4\2-4---2-------4-------4-----0-----|
--------------------------4---4-----------4----2----|
---------------------------(2)------------------2---|
-------------------------------------------------0--|

|gtr2
|----------------------------------------------------------------------
|----------------------------------------------------------------------
|--2/4-4---4-----------------------2p0-0---0---------------------------
|--------------------------------------------------------------5p4-2---
|----------------------------------------------------------------------
|----------------------------------------------------------------------

----------------------------------------------------|
----------------------------------------------------|
----------------------------------------------------|
--------2/--4---------------------------------------|
---------------------------0h2----------------------|
----------------------------------------------------|

repeat 4 times
|-------------|---------------|-------------|-------------|
|-------------|------5h0------|-------------|--------0-3--|
|-------------|---------------|--------4-4--|----4p2------|
|----4/5-5-5--|--4/5-----5-4--|--2-4/5-5-5--|--------5-4--|
|--------7-7--|---------------|-------------|--0-2--------|
|--0----------|---------------|-------------|-------------|

	 repeat 8 times
|-----|---------------|
|-----|---------------|
|-----|--------0------|
|-----|------0---0----|
|-----|----6-------6--|
|--2--|--4------------|

then again:

repeat 1st part 4 times & 2nd part 7 times ending with...
|-----|
|-----|
|-----|
|-----|
|-----|
|--4--|

2nd solo
*again, i broke the solo into sections
 solo gtr
|-----------------------------------------12--------15-13-15------19p15
|-------------------------------8-10-8-------10-12---------------------
|------666666777777/11-----9-11--------11------------------------------
|999999----------------------------------------------------------------
|----------------------------------------------------------------------
|----------------------------------------------------------------------

-12-15p14p12-15p12-------|
-------------------------|
-------------------12-9--|
-------------------------|
-------------------------|
-------------------------|
|rhythm gtr
|----------------------------------------------------------------------
|----------------------------------------------------------------------
|-------------------------4--------------------------------------------
|--------4-------------245-542---------------2-------------------------
|--2-----------2-------------2---------------2-------------------------
|----------------------------0---------------0-------------------------
solo
|----------------------------------------------------------------------
|----------------------------------------------------------------------
|----7-9-10p9-7-12p10p9-10p9-7-10p9p7-9-7----7-------------------------
|--8--------------------------------------10---10-9-10-9-7-9-7---------
|--------------------------------------------------------------10-7----
|----------------------------------------------------------------------
rhythm
|----------------------------------------------------------------------
|----------------------------------------------------------------------
|--3----------------------------3--------------------------------------
|--3----------------------------3--------------------------------------
|--1----------------------------1--------------------------------------
|----------------------------------------------------------------------
solo
|-----------------6-7-6---/7-7-7---------------------------------------
|---------------------br-----------------------------------------------
|---------7-10-9-------------------------------------------------------
|----9-8---------------------------------------------------------------
|--x-------------------------------------------------------------------
|----------------------------------------------------------------------
rhythm
|----------------------------------------------------------------------
|----------------------------------------------------------------------
|----------------------------------------------------------------------
|--2-------------------------------------------------------------------
|--2-------------------------------------------------------------------
|--0-------------------------------------------------------------------
solo
|19p17-15-17p15-14-15p14p12-14p12-10-12p10----10-----------------------
|--------------------------------------------13----13-12-13-12-10-12---
|----------------------------------------------------------------------
|----------------------------------------------------------------------
|----------------------------------------------------------------------
|----------------------------------------------------------------------

-----|
10---|
12-9-|
-----|
-----|
-----|
rhythm
|----------------------------------------------------------------------
|----------------------------------------------------------------------
|---4-----------------------------------------------------5------------
|---4-----------------------------------------------------5--------4---
|---2-----------------------------------------------------3--------4---
|------------------------------------------------------------------2---

-------|
-------|
-------|
----2--|
----2--|
----0--|
solo
|----------------------------------------------------------------------
|-----------------------------------11\\\\\----------------------------
|-----------9-------7-7/9-9-9-----9--9\\\\\----------------------------
|----------------------------------------------------------------------
|----------------------------------------------------------------------
|----------------------------------------------------------------------
rhythm
|----------------------------------------------------------------------
|----------------------------------------------------------------------
|---------------------9-----------9------------------------------------
|-----------2---------9-----------9------------------------------------
|-----------2---------7-----------7------------------------------------
|-----------0----------------------------------------------------------
riff 16 repeat 8 times
gtr1	           ...ending with: 1.2.3.5.6.7.   4.    8.
|----------------------------------|--------------|-----|------------|
|----------------------------------|--------------|-----|------------|
|5---4---2h4-4-----------5---5-5p4-2-4---4--------|--4--|4-----------|
|------------4-----4-4-------------|---------4-4--|-----|----4\------|
|------------2---------------------|--------------|-----|---------5~~|
|----------------------------------|--------------|-----|------------|
|gtr2				
|----------------------------------|--------------|-----|------------|
|----------------------------------|--------------|-----|------------|
|----------------------------------|--------------|-----|------------|
|2---2-------------------5---4-----|--------------|-----|------------|
|--------5p3-2---2-2-2-2---------5-|-2---2-2-2-2--|--2--|-2---2----2~|
|----------------------------------|--------------|-----|------------|
last interlude:
"it is getting dark again
 dusk shuffle across the fields
 the evening trees moan as if they knew
 at night i always dream of you"
 1.2.3.4.5.6.7.8.9.10.11.12.
 21.22.23.24.25.26.27.28.    13.14.15.16.17.18.19.20.
|---------------------------|---------------------------|
|------------------4--------|------------------2--------|
|------7-----7-------7p5----|------5-----5-------5p3----|
|----7-----7-----6-------6--|----5-----5-----4-------4--|
|--5-----5------------------|--3-----3------------------|
|--------------4------------|--------------2------------|
the end:repeat and fade
 gtr1	     gtr2
|---------|---------------------|
|---------|---------------------|
|--7------|--9-----10----7-9\1--|
|--5---6--|---------------------|
|--5---6--|---------------------|


Important: The song above is NOT stored on the Chordie server. The original song is hosted at www.xguitar.com. Chordie works as a search engine and provides on-the-fly formatting. Chordie does not index songs against artists'/composers' will. To remove this song please click here.

This song is displayed as text-only. Transposing and tuning is only available for chordpro-songs.

Login - add to songbook

Rating click stars to rate

Layout
Accuracy

SHARE PAGE  




You need to log in to post comments