Guitar Tabs, Chords and Lyrics


To Bid You Farewell   Opeth

   [4/4] Gtr I
    [E]  [E]  [E]  [E]  [E]  [E]  [E]  [E]    [E]  [E]  [E]  [E]  [E]  [E]  [E]  [E]    [E]  [E]  [E]  [E]  [E]  [E]  [E]  [E]    [E]  [E]  [E]  [E]  [E]  [E]  [E]  [E]                                
||------------------|-----------------|-----------------|-------------------||
||o-----------------|-----------------|-----------------|------------------o||
||----------0-------|---------0-------|---------0-------|---------0---------||
||------4-----4---4-|-----4-----4---4-|-----4-----4---4-|-----4-----4---4---||
||o---2---2-----2---|---2---2-----2---|---2---2-----2---|---2---2-----2----o||
||--0---------------|-0---------------|-0---------------|-0-----------------||



    [Emadd2]Gtr I
    [E]  [E]  [E]  [E]  [E]  [E]  [E]  [E]     [E]    [E]  [E]  [E]  [E]  [E]  [E]  [E]                                                                 
||------------------|--------------------|
||o-----------------|--------------------|
||----------0-------|------------0-------|
||------4-----4---4-|--------4-----4---4-|
||o---2---2-----2---|------2---2-----2---|
||--0---------------|--0-----------------|

|
| Gtr II
| W +H.. E
||------------------|--------------------|
||o-----------------|--------------------|
||------------------|--------------------|
||--5---------------|-(5)--------------7-|
||o-----------------|--------------------|
||------------------|--------------------|



   [E]  [E]  [E]  [E]  [E]  [E]  [E]  [E]     [E]   [E]  [E]  [E]  [E]  [E]  [E]  [E]                                                                   
|------------------|--------------------|
|----------0-------|-----------0--------|
|------0-----0---0-|-------0-----0---0--|
|----4---4-----4---|-----4---4-----4----|
|-/5---------------|--5-----------------|
|------------------|--------------------|

|
| W +W
|------------------|--------------------|
|------------------|--------------------|
|------------------|--------------------|
|--4---------------|-(4)----------------|
|------------------|--------------------|
|------------------|--------------------|



  [D]E E E E E E Q    +H.      E E   [Bm]E E E E  E  E Q    +W      4x
|-3p0------------|--------------|---------------2--|-(2)-----||
|---------5s8-7--|-(7)----------|----------0-------|--------o||
|-------4--------|--------------|-----0------------|---------||
|-----5----------|----------4s2-|---4---4-----4----|---------||
|----------------|--------------|-2----------------|--------o||
|----------------|--------------|------------------|---------||

|
| E E E E E E Q +H. E E H +E E Q +W 4x
|-3-0------------|--------------|------------------|---------||
|-----0----------|--------------|------------------|--------o||
|-------0--------|--------------|------------------|---------||
|---------4-2-0--|-(0)----------|-------------2S4--|-(4)-----||
|----------------|----------0-1-|-2-------(2)------|--------o||
|----------------|--------------|------------------|---------||



  [D]H       E E [A]Q    +H..              E   [G]E E  E  E E E [F#]Q    +W
|----------------|-------------------x-|-3p2-(0)-2--------|-----------------|
|-3-------3s5-2--|-(2)-----------------|-----------5s7-7--|-(7)-------------|
|----------------|---------------------|------------------|-----------------|
|----------------|---------------------|------------------|-----------------|
|----------------|---------------------|------------------|-----------------|
|----------------|---------------------|------------------|-----------------|

|
| H E E Q +H.. E E E E E E E Q +W
|----------------|-------------------x-|-3p2--0--2--------|-----------------|
|-3-------3------|---------------------|-----------5s7-7--|-(7)-------------|
|-----------4-2--|-(2)-----------------|------------------|-----------------|
|----------------|---------------------|------------------|-----------------|
|----------------|---------------------|------------------|-----------------|
|----------------|---------------------|------------------|-----------------|

|
| Gtr III
| E E E E E E Q +Q Q +Q +E E Q. q E Q +E Q. Q Q
|----------------|-------------------x-|------------------|-----------------|
|---------3------|---------------------|-7-------7-----5--|-(5)-2----5------|
|-----4-----4-2--|-(2)---2--(2)--(2)---|-7----------------|-----------------|
|---4---4--------|---------------------|------------------|-------------4---|
|-2-----------0--|-(0)-----------------|------------------|-----------------|
|----------------|---------------------|------------------|-----------------|



  [D]H       E E [A]Q    +H..           E   [G]E E  E  E E E [F#]Q    +W
|----------------|----------------x-|-3p2-(0)-3--------|-----------------|
|-3-------3s5-2--|-(2)--------------|-----------5s7-7--|-(7)-------------|
|----------------|------------------|------------------|-----------------|
|----------------|------------------|------------------|-----------------|
|----------------|------------------|------------------|-----------------|
|----------------|------------------|------------------|-----------------|

|
| H E E Q +H.. E E E E E E E Q +W
|----------------|----------------x-|-3p2--0-----------|-----------------|
|-3-------3------|------------------|---------3-5s7-7--|-(7)-------------|
|-----------4-2--|-(2)--------------|------------------|-----------------|
|----------------|------------------|------------------|-----------------|
|----------------|------------------|------------------|-----------------|
|----------------|------------------|------------------|-----------------|

|
| E E E E E E Q +Q Q +H Q. q E Q +E Q. Q Q
|----------------|------------------|------------------|-----------------|
|---------3------|------------------|-7-------8-----5--|-(5)-2----5--2---|
|-----4-----4-2--|-(2)---2--(2)-----|-7----------------|-----------------|
|---4---4--------|------------------|------------------|-----------------|
|-2-----------0--|-(0)--------------|------------------|-----------------|
|----------------|------------------|------------------|-----------------|



  [D]H       E  E [A]Q    +H..          E   [G]E E  E  E E E [F#]Q    +W
|-----------------|---------------x-|-3p2-(0)-2--------|-----------------|
|-3-------3s=5-2--|-(2)-------------|-----------5s7-7--|-(7)-------------|
|-----------------|-----------------|------------------|-----------------|
|-----------------|-----------------|------------------|-----------------|
|-----------------|-----------------|------------------|-----------------|
|-----------------|-----------------|------------------|-----------------|

|
| H E E Q +H.. E E E E E E E Q +W
|-----------------|---------------x-|-3p2--0-----------|-----------------|
|-3-------3-------|-----------------|---------3-5s7-7--|-(7)-------------|
|------------4-2--|-(2)-------------|------------------|-----------------|
|-----------------|-----------------|------------------|-----------------|
|-----------------|-----------------|------------------|-----------------|
|-----------------|-----------------|------------------|-----------------|

|
| E E Q +Q Q +E. S H. Q. q E Q +E Q. Q Q
|-----------------|-----------------|------------------|-----------------|
|--------------2--|-(2)-------------|-7-------7-----5--|-(5)-2----5--2---|
|-----4--(4)------|------4p2--------|-7----------------|-----------------|
|---4-------------|-----------------|------------------|-----------------|
|-2------------0--|-(0)-------------|------------------|-----------------|
|-----------------|-----------------|------------------|-----------------|



  [D]H       E E [A]Q    +H..           E   [G]E E  E  E E E [F#]Q    +W
|----------------|----------------x-|-3p2-(0)-3--------|-----------------|
|-3-------3s5-2--|-(2)--------------|-----------5s7-7--|-(7)-------------|
|----------------|------------------|------------------|-----------------|
|----------------|------------------|------------------|-----------------|
|----------------|------------------|------------------|-----------------|
|----------------|------------------|------------------|-----------------|

|
| H E E Q +H.. E E E E E E E Q +W
|----------------|----------------x-|-3p2--0-----------|-----------------|
|-3-------3------|------------------|---------3-5s7-7--|-(7)-------------|
|-----------4-2--|-(2)--------------|------------------|-----------------|
|----------------|------------------|------------------|-----------------|
|----------------|------------------|------------------|-----------------|
|----------------|------------------|------------------|-----------------|

|
| E E E E E E Q +Q Q +H Q. q E Q +E Q. Q Q
|----------------|------------------|------------------|-----------------|
|---------3------|------------------|-7-------8-----5--|-(5)-2----5--2---|
|-----4-----4-2--|-(2)---2--(2)-----|-7----------------|-----------------|
|---4---4--------|------------------|------------------|-----------------|
|-2-----------0--|-(0)--------------|------------------|-----------------|
|----------------|------------------|------------------|-----------------|



  [D]Q.   E q  [C#m]Q    +Q    E E Q.    E   [G]E E E E E E [A]Q    +W
|--------------|-------------------|----------------|--------|
|-3------3--2--|-(2)---------------|----------------|--------|
|------4-------|-------2s4s2-------|----------------|--------|
|--------------|-------------------|---0-2-4-5-4----|--------|
|--------------|-------------------|-------------0--|-(0)----|
|--------------|-----------------2-|-3--------------|--------|

|
| Q. E q Q +Q E E Q. E E E E E E E Q +W
|-2----0-------|-------------------|----------------|--------|
|--------3--2--|-(2)---2s3s2-------|----------------|--------|
|--------------|-------------------|-4---4-2--------|--------|
|--------------|----------------/5-|---5-----5p4-2--|-(2)----|
|--------------|-------------------|----------------|--------|
|--------------|-------------------|----------------|--------|

|
| Q. E Q Q +H.. E Q Q Q Q +W
|-2----0----0--|-(0)---------------|----------------|--------|
|--------3-----|-------------------|----------------|--------|
|--------------|-------------------|----------------|--------|
|--------------|-----------------0-|-2---4---5---2--|-(2)----|
|--------------|-------------------|----------------|--------|
|--------------|-------------------|----------------|--------|



  [D]Q.   E q  [C#m]Q    +Q    E E Q.    E   [G]E E E E E E [A]Q    +W
|--------------|-------------------|----------------|------------|
|-3------3--2--|-(2)---------------|----------------|------------|
|------4-------|-------2s4s2-------|----------------|------------|
|--------------|-------------------|---0-2-4-5-4----|------------|
|--------------|-------------------|-------------0--|-(0)--------|
|--------------|-----------------2-|-3--------------|------------|

|
| Q. E q Q +Q E E Q. E E E E E E E Q +W
|-2----0-------|-------------------|----------------|------------|
|--------3--2--|-(2)---2s3-5-------|----------------|------------|
|--------------|-------------------|-4---4-2--------|------------|
|--------------|----------------/5-|---5-----5p4-2--|-(2)--------|
|--------------|-------------------|----------------|------------|
|--------------|-------------------|----------------|------------|

|
| Q. E Q Q +H.. E Q Q Q Q +Q H.
|-2----0----0--|-(0)---------------|----------------|------------|
|--------3-----|-------------------|----------------|------------|
|--------------|-------------------|----------------|------2-----|
|--------------|-----------------0-|-2---4---5---2--|-(2)--------|
|--------------|-------------------|----------------|------------|
|--------------|-------------------|----------------|------------|



  [D]Q.   E q  [C#m]Q    +Q    E E Q.    E   [G]E E E E E E [A]Q    +W
|--------------|-------------------|----------------|------------|
|-3------3--2--|-(2)---------------|----------------|------------|
|------4-------|-------2s4s2-------|----------------|------------|
|--------------|-------------------|---0-2-4-5-4----|------------|
|--------------|-------------------|-------------0--|-(0)--------|
|--------------|-----------------2-|-3--------------|------------|

|
| Q. E q Q +Q E E Q. E E E E E E E Q +W
|-2----0-------|-------------------|----------------|------------|
|--------3--2--|-(2)---2s3s2-------|----------------|------------|
|--------------|-------------------|-4---4-2--------|------------|
|--------------|----------------/5-|---5-----5p4-2--|-(2)--------|
|--------------|-------------------|----------------|------------|
|--------------|-------------------|----------------|------------|

|
| Q. E Q Q +H.. E Q Q Q Q +Q H.
|-2----0----0--|-(0)---------------|----------------|------------|
|--------3-----|-------------------|----------------|------------|
|--------------|-------------------|----------------|------2-----|
|--------------|-----------------0-|-2---4---5---2--|-(2)--------|
|--------------|-------------------|----------------|------------|
|--------------|-------------------|----------------|------------|



  [D]Q.   E q  [C#m]Q    +Q    E E Q.    E   [G]E E E E E E [A]Q    +W
|--------------|-------------------|----------------|------------|
|-3------3--2--|-(2)---------------|----------------|------------|
|------4-------|-------2s4s2-------|----------------|------------|
|--------------|-------------------|---0-2-4-5-4----|------------|
|--------------|-------------------|-------------0--|-(0)--------|
|--------------|-----------------2-|-3--------------|------------|

|
| Q. E q Q +Q E E Q. E E E E E E E Q +W
|-2----0-------|-------------------|----------------|------------|
|--------3--2--|-(2)---2s3-5-------|----------------|------------|
|--------------|-------------------|-4---4-2--------|------------|
|--------------|----------------/5-|---5-----5p4-2--|-(2)--------|
|--------------|-------------------|----------------|------------|
|--------------|-------------------|----------------|------------|

|
| Q. E Q Q +H.. E Q Q Q Q +Q H.
|-2----0----0--|-(0)---------------|----------------|------------|
|--------3-----|-------------------|----------------|------------|
|--------------|-------------------|----------------|------2-----|
|--------------|-----------------0-|-2---4---5---2--|-(2)--------|
|--------------|-------------------|----------------|------------|
|--------------|-------------------|----------------|------------|



    [D]H       E E [A]Q    +H..              E   [G]E E  E  E E E [F#]Q    +W
||-----------------|-------------------x-|-3p2-(0)-2--------|----------------|
||o-3-------3s5-2--|-(2)-----------------|-----------5s7-7--|-(7)------------|
||-----------------|---------------------|------------------|----------------|
||-----------------|---------------------|------------------|----------------|
||o----------------|---------------------|------------------|----------------|
||-----------------|---------------------|------------------|----------------|

|
| H E E Q +H.. E E E E E E E Q +W
||-----------------|-------------------x-|-3p2--0-----------|----------------|
||o-3-------3------|---------------------|---------3-5s7-7--|-(7)------------|
||------------4-2--|-(2)-----------------|------------------|----------------|
||-----------------|---------------------|------------------|----------------|
||o----------------|---------------------|------------------|----------------|
||-----------------|---------------------|------------------|----------------|

|
| E E E E E E Q +Q Q +Q +E E Q. q E Q +E Q. Q Q
||-----------------|-------------------x-|------------------|----------------|
||o---------3------|---------------------|-7-------7-----5--|-(5)-2----5--2--|
||------4-----4-2--|-(2)---2--(2)--(2)---|-7----------------|----------------|
||----4---4--------|---------------------|------------------|----------------|
||o-2-----------0--|-(0)-----------------|------------------|----------------|
||-----------------|---------------------|------------------|----------------|



  [D]H       E E [A]Q    +H..              E   [G]E E  E  E E E [F#]Q    +W
|----------------|-------------------x-|-3p2-(0)-3--------|------------------||
|-3-------3s5-2--|-(2)-----------------|-----------5s7-7--|-(7)-------------o||
|----------------|---------------------|------------------|------------------||
|----------------|---------------------|------------------|------------------||
|----------------|---------------------|------------------|-----------------o||
|----------------|---------------------|------------------|------------------||

|
| H E E Q +H.. E E E E E E E Q +W
|----------------|-------------------x-|-3p2--0-----------|------------------||
|-3-------3------|---------------------|---------3-5s7-7--|-(7)-------------o||
|-----------4-2--|-(2)-----------------|------------------|------------------||
|----------------|---------------------|------------------|------------------||
|----------------|---------------------|------------------|-----------------o||
|----------------|---------------------|------------------|------------------||

|
| E E E E E E Q +Q Q +Q +E E Q. q E Q +E Q. Q Q
|----------------|-------------------x-|------------------|------------------||
|---------3------|---------------------|-7-------8-----5--|-(5)-2----5--2---o||
|-----4-----4-2--|-(2)---2--(2)--(2)---|-7----------------|------------------||
|---4---4--------|---------------------|------------------|------------------||
|-2-----------0--|-(0)-----------------|------------------|-----------------o||
|----------------|---------------------|------------------|------------------||



  Q  [D]q  Q  [C#m]Q    +Q    E E Q.    E   [G]E E E E E E [A]Q    +W
|-------------|-------------------|----------------|------------|
|----3-----5--|-(5)---------------|----------------|------------|
|-------------|-------2s4s2-------|----------------|------------|
|-------------|-------------------|---0-2-4-5-4----|------------|
|-------------|-------------------|-------------0--|-(0)--------|
|-------------|-----------------2-|-3--------------|------------|

|
| Q Q Q Q +Q E E Q. E E E E E E E Q +W
|-------------|-------------------|----------------|------------|
|----3-----2--|-(2)---2s3-5-------|----------------|------------|
|-------------|-------------------|-4---4-2--------|------------|
|-------------|----------------/5-|---5-----5p4-2--|-(2)--------|
|-------------|-------------------|----------------|------------|
|-------------|-------------------|----------------|------------|

|
| Q q Q Q +H.. E Q Q Q Q +Q H.
|-------------|-------------------|----------------|------------|
|-------------|-------------------|----------------|------------|
|----7-----6--|-(6)---------------|----------------|------2-----|
|-------------|-----------------0-|-2---4---5---2--|-(2)--------|
|-------------|-------------------|----------------|------------|
|-------------|-------------------|----------------|------------|



  [D]Q.   E q  [C#m]Q    +Q    E E Q.    E   [G]E E E E E E [A]Q    +W
|--------------|-------------------|----------------|------------|
|-3------3--2--|-(2)---------------|----------------|------------|
|------4-------|-------2s4s2-------|----------------|------------|
|--------------|-------------------|---0-2-4-5-4----|------------|
|--------------|-------------------|-------------0--|-(0)--------|
|--------------|-----------------2-|-3--------------|------------|

|
| Q. E q Q +Q E E Q. E E E E E E E Q +W
|-2----0-------|-------------------|----------------|------------|
|--------3--2--|-(2)---2h3-5-------|----------------|------------|
|--------------|-------------------|-4---4-2--------|------------|
|--------------|----------------/5-|---5-----5p4-2--|-(2)--------|
|--------------|-------------------|----------------|------------|
|--------------|-------------------|----------------|------------|

|
| Q. E Q Q +H.. E Q Q Q Q +Q H.
|-2----0----0--|-(0)---------------|----------------|------------|
|--------3-----|-------------------|----------------|------------|
|--------------|-------------------|----------------|------2-----|
|--------------|-----------------0-|-2---4---5---2--|-(2)--------|
|--------------|-------------------|----------------|------------|
|--------------|-------------------|----------------|------------|



  [D]Q.   E q  [C#m]Q    +Q    E E Q.    E   [G]E E E E E E [A]Q    +W
|--------------|-------------------|----------------|------------|
|-3------3--2--|-(2)---------------|----------------|------------|
|------4-------|-------2s4s2-------|----------------|------------|
|--------------|-------------------|---0-2-4-5-4----|------------|
|--------------|-------------------|-------------0--|-(0)--------|
|--------------|-----------------2-|-3--------------|------------|

|
| Q. E q Q +Q E E Q. E E E E E E E Q +W
|-2----0-------|-------------------|----------------|------------|
|--------3--2--|-(2)---2s3s2-------|----------------|------------|
|--------------|-------------------|-4---4-2--------|------------|
|--------------|----------------/5-|---5-----5p4-2--|-(2)--------|
|--------------|-------------------|----------------|------------|
|--------------|-------------------|----------------|------------|

|
| Q. E Q Q +H.. E Q Q Q Q +Q H.
|-2----0----0--|-(0)---------------|----------------|------------|
|--------3-----|-------------------|----------------|------------|
|--------------|-------------------|----------------|------2-----|
|--------------|-----------------0-|-2---4---5---2--|-(2)--------|
|--------------|-------------------|----------------|------------|
|--------------|-------------------|----------------|------------|



  [D]Q.   E q  [C#m]Q    +Q    E E Q.    E   [G]E E E E E E [A]Q    +W
|--------------|-------------------|----------------|------------|
|-3------3--2--|-(2)---------------|----------------|------------|
|------4-------|-------2s4s2-------|----------------|------------|
|--------------|-------------------|---0-2-4-5-4----|------------|
|--------------|-------------------|-------------0--|-(0)--------|
|--------------|-----------------2-|-3--------------|------------|

|
| Q. E q Q +Q E E Q. E E E E E E E Q +W
|-2----0-------|-------------------|----------------|------------|
|--------3--2--|-(2)---2s3-5-------|----------------|------------|
|--------------|-------------------|-4---4-2--------|------------|
|--------------|----------------/5-|---5-----5p4-2--|-(2)--------|
|--------------|-------------------|----------------|------------|
|--------------|-------------------|----------------|------------|

|
| Q. E Q Q +H.. E Q Q Q Q +Q H.
|-2----0----0--|-(0)---------------|----------------|------------|
|--------3-----|-------------------|----------------|------------|
|--------------|-------------------|----------------|------2-----|
|--------------|-----------------0-|-2---4---5---2--|-(2)--------|
|--------------|-------------------|----------------|------------|
|--------------|-------------------|----------------|------------|



    [Dm]H    H            +W                    +W             +W      3x
||-------1----------|-(1)-----------------|-(1)----------|-(1)-----||
||o------3----------|-(3)-----------------|-(3)----------|-(3)----o||
||--2----2----------|-(2)-----------------|-(2)----------|-(2)-----||
||--0---------------|---------------------|--------------|---------||
||o-----------------|---------------------|--------------|--------o||
||------------------|---------------------|--------------|---------||

|
| H E E E E E. +S E q q E q H. +W 3x
||------------------|---------------------|--------------|---------||
||o--------10-10-10-|-10--(10)\-8-8--6--5-|--5---5-------|-(5)----o||
||---------10-10-10-|-10--(10)\-9-9--7--5-|--5---5-------|-(5)-----||
||------------------|---------------------|--------------|---------||
||o-----------------|---------------------|--------------|--------o||
||------------------|---------------------|--------------|---------||



H H +W +W +H.. E
|------1----------|-(1)-----------------|-(1)----------|-(1)----------|
|------3----------|-(3)-----------------|-(3)----------|-(3)----------|
|-2----2----------|-(2)-----------------|-(2)----------|-(2)----------|
|-0---------------|---------------------|--------------|--------------|
|-----------------|---------------------|--------------|------------0-|
|-----------------|---------------------|--------------|--------------|

|
| H E E E E E. +S E q q E q H. +W
|-----------------|---------------------|--------------|--------------|
|--------10-10-10-|-10--(10)\-8-8--6--5-|--5---5-------|-(5)----------|
|--------10-10-10-|-10--(10)\-9-9--7--5-|--5---5-------|-(5)----------|
|-----------------|---------------------|--------------|--------------|
|-----------------|---------------------|--------------|--------------|
|-----------------|---------------------|--------------|--------------|



  [Bbsus2]Gtrs I, II                    [Gm]
E E H. +W E E H. +W
|----------------|------------|----------------|--------|
|--------1-------|-(1)--------|----------------|--------|
|--------3-------|-(3)--------|--------3-------|-(3)----|
|----3---3-------|-(3)--------|--------5-------|-(5)----|
|-1-(1)-(1)------|-(1)--------|----5---5-------|-(5)----|
|----------------|------------|-3-(3)-(3)------|-(3)----|



  [Dm]E  E   H.        +W           E  E   H.        +W
|----------------|------------|----------------|--------|
|--------6-------|-(6)--------|--------6-------|-(6)----|
|--------7-------|-(7)--------|--------7-------|-(7)----|
|----7--(7)------|-(7)--------|----7--(7)------|-(7)----|
|-5-(5)-(5)------|-(5)--------|-5-(5)-(5)------|-(5)----|
|----------------|------------|----------------|--------|



Verse 1
    [Dm]E  E   H.        +W           E  E   H.        +H..       E
||-----------------|------------|----------------|---------------|
||o--------6-------|-(6)--------|--------6-------|-(6)-----------|
||---------7-------|-(7)--------|--------7-------|-(7)-----------|
||-----7--(7)------|-(7)--------|----7--(7)------|-(7)-----------|
||o-5-(5)-(5)------|-(5)--------|-5-(5)-(5)------|-(5)--------0--|
||-----------------|------------|----------------|---------------|



  [Bbsus2]E  E   H.        +W           [Gm]E  E   H.        +W
|----------------|------------|----------------|--------|
|--------1-------|-(1)--------|----------------|--------|
|--------3-------|-(3)--------|--------3-------|-(3)----|
|----3---3-------|-(3)--------|--------5-------|-(5)----|
|-1-(1)-(1)------|-(1)--------|----5---5-------|-(5)----|
|----------------|------------|-3-(3)-(3)------|-(3)----|



  [Dm]Gtr IV
W W W
|----------------|------------|----------------|
|----------------|------------|----------------|
|----------------|------------|----------------|
|----------------|------------|----------------|
|----------------|------------|----------------|
|----------------|------------|----------------|

|
| Gtrs I, II
| E E H. +W E E H.
|----------------|------------|----------------|
|--------6-------|-(6)--------|--------6-------|
|--------7-------|-(7)--------|--------7-------|
|----7--(7)------|-(7)--------|----7--(7)------|
|-5-(5)-(5)------|-(5)--------|-5-(5)-(5)------|
|----------------|------------|----------------|



1. 2.
W H E E E E
|-------------||-----------------|
|------------o||---------------5-|
|-------------||-------------7---|
|-------------||----------/7-----|
|------------o||-----------------|
|-------------||-----------------|

|
| +W +W
|-------------||-----------------|
|-(6)--------o||-(6)-------------|
|-(7)---------||-(7)-------------|
|-(7)---------||-(7)-------------|
|-(5)--------o||-(5)-------------|
|-------------||-----------------|



Guitar Solo
  [Dm]E +E     +Q   +E  +S. T E. S   +E  Q.   +Q   E E
|------------------------------|-------------------|
|-5-(5)pb6r(5)--(5)-(5)-3h5----|-------------------|
|----------------------------5-|-(5)-2----(2)--2s5-|
|------------------------------|-------------------|
|------------------------------|-------------------|
|------------------------------|-------------------|

|
| E E H. +W
|------------------------------|-------------------|
|-----------6------------------|-(6)---------------|
|-----------7------------------|-(7)---------------|
|----7-----(7)-----------------|-(7)---------------|
|-5-(5)----(5)-----------------|-(5)---------------|
|------------------------------|-------------------|
  |---3---|                                |-3-|

E E E +H. +H T T T T +e q E
|--------------------|---------------5-(5)-8---5---|
|-5h8p====5-(5)------|-(5)---------6---------------|
|--------------------|-----------7-----------------|
|--------------------|---------7-------------------|
|--------------------|-----------------------------|
|--------------------|-----------------------------|

|
| E E H. +H.. E
|--------------------|-----------------------------|
|------------6-------|-(6)-------------------------|
|------------7-------|-(7)-------------------------|
|------7----(7)------|-(7)-------------------------|
|-5---(5)---(5)------|-(5)-------------------0-----|
|--------------------|-----------------------------|



|-3--|
S e. S e. +H +H +Q Q Q
|---------------------------|-------------------|
|-8s10-------8s=10--(10)----|-(10)----(10)-8-6--|
|---------------------------|-------------------|
|-5s=7-------5s==7---(7)----|--(7)-----(7)-5-3--|
|---------------------------|-------------------|
|---------------------------|-------------------|

|
| E E H. +W
|---------------------------|-------------------|
|------------6--------------|--(6)--------------|
|------------7--------------|--(7)--------------|
|--------7--(7)-------------|--(7)--------------|
|-5-----(5)-(5)-------------|--(5)--------------|
|---------------------------|-------------------|



E E H. +Q E E E q E
|----------------|-----------------|
|-5s=6s==5-------|-(5)------6----6-|
|----------------|------5h7---7----|
|-2s=3s==2-------|-(2)-------------|
|----------------|-----------------|
|----------------|-----------------|

|
| E E H. +W
|----------------|-----------------|
|--------6-------|-(6)-------------|
|--------7-------|-(7)-------------|
|----7--(7)------|-(7)-------------|
|-5-(5)-(5)------|-(5)-------------|
|----------------|-----------------|



  [Bbsus2]Q      H.           +Q.     E      +E    E    E    E
|-------------------|--------------------------10------|
|-8------8b10=======|=(8)r----------------10--(10)--13-|
|-------------------|--------12b14==(12)-(12)-(12)r----|
|-------------------|----------------------------------|
|-------------------|----------------------------------|
|-------------------|----------------------------------|

|
| E E H. +W
|-------------------|----------------------------------|
|--------1----------|-(1)------------------------------|
|--------3----------|-(3)------------------------------|
|----3---3----------|-(3)------------------------------|
|-1-(1)-(1)---------|-(1)------------------------------|
|-------------------|----------------------------------|



  [Gm] +Q            E   E   E   Q.      +H.       +E    S  S
|---------------10------10--------|-----------------13p10-|
|-(13)b15======(13)-13-(13)-13----|-(13)------(13)r-------|
|---------------------------------|-----------------------|
|---------------------------------|-----------------------|
|---------------------------------|-----------------------|
|---------------------------------|-----------------------|

|
| E E H. +W
|---------------------------------|-----------------------|
|---------------------------------|-----------------------|
|----------------3----------------|--(3)------------------|
|----------------5----------------|--(5)------------------|
|-----------5----5----------------|--(5)------------------|
|---3------(3)--(3)---------------|--(3)------------------|



  [Dm] Q.          E  E  E E  E    H..        E
|-------------------13---15-|---------------|
|-10----------13-15---------|-13---------10-|
|---------------------------|---------------|
|---------------------------|---------------|
|---------------------------|---------------|
|---------------------------|---------------|

|
| E E H. +W
|---------------------------|---------------|
|----------6----------------|-(6)-----------|
|----------7----------------|-(7)-----------|
|------7--(7)---------------|-(7)-----------|
|--5--(5)-(5)---------------|-(5)-----------|
|---------------------------|---------------|



E Q E +H +Q. E +Q Q
|-----------------------|---------------------------|
|-13p10-----------------|----------------------13---|
|------------12-(12)----|-(12)---12-(12)b14===(12)--|
|-----------------------|---------------------------|
|-----------------------|---------------------------|
|-----------------------|---------------------------|

|
| E E H. +W
|-----------------------|---------------------------|
|---------6-------------|--(6)----------------------|
|---------7-------------|--(7)----------------------|
|-----7--(7)------------|--(7)----------------------|
|--5-(5)-(5)------------|--(5)----------------------|
|-----------------------|---------------------------|



Verse 2
E +Q. H W W W
|-------------------|------------|----------------|--------|
|-------------------|------------|----------------|--------|
|-12r(12)-----------|------------|----------------|--------|
|-------------------|------------|----------------|--------|
|-------------------|------------|----------------|--------|
|-------------------|------------|----------------|--------|

|
| E E H. +W E E H. +W
|-------------------|------------|----------------|--------|
|----------6--------|-(6)--------|--------6-------|-(6)----|
|----------7--------|-(7)--------|--------7-------|-(7)----|
|------7--(7)-------|-(7)--------|----7--(7)------|-(7)----|
|--5--(5)-(5)-------|-(5)--------|-5-(5)-(5)------|-(5)----|
|-------------------|------------|----------------|--------|



  [Bbsus2]Gtrs I, II                    [Gm]
E E H. +W E E H. +W
|----------------|------------|----------------|--------|
|--------1-------|-(1)--------|----------------|--------|
|--------3-------|-(3)--------|--------3-------|-(3)----|
|----3---3-------|-(3)--------|--------5-------|-(5)----|
|-1-(1)-(1)------|-(1)--------|----5---5-------|-(5)----|
|----------------|------------|-3-(3)-(3)------|-(3)----|



  [Dm]E  E   H.        +W           E  E   H.        +H..       E
|----------------|------------|----------------|--------------|
|--------6-------|-(6)--------|--------6-------|-(6)----------|
|--------7-------|-(7)--------|--------7-------|-(7)----------|
|----7--(7)------|-(7)--------|----7--(7)------|-(7)----------|
|-5-(5)-(5)------|-(5)--------|-5-(5)-(5)------|-(5)--------0-|
|----------------|------------|----------------|--------------|



  [Bbsus2]E  E   H.        +W           [Gm]E  E   H.        +W
|----------------|------------|----------------|--------|
|--------1-------|-(1)--------|----------------|--------|
|--------3-------|-(3)--------|--------3-------|-(3)----|
|----3---3-------|-(3)--------|--------5-------|-(5)----|
|-1-(1)-(1)------|-(1)--------|----5---5-------|-(5)----|
|----------------|------------|-3-(3)-(3)------|-(3)----|



Best Bridge Ever
    [Dm]Gtr I
H H +W +W +W 4x
||-------1----------|-(1)-----------------|-(1)----------|-(1)-----||
||o------3----------|-(3)-----------------|-(3)----------|-(3)----o||
||--2----2----------|-(2)-----------------|-(2)----------|-(2)-----||
||--0---------------|---------------------|--------------|---------||
||o-----------------|---------------------|--------------|--------o||
||------------------|---------------------|--------------|---------||

|
| Gtr II
| H E E E E E. +S E q q E q H. +W 4x
||------------------|---------------------|--------------|---------||
||o--------10-10-10-|-10--(10)\-8-8--6--5-|--5---5-------|-(5)----o||
||---------10-10-10-|-10--(10)\-9-9--7--5-|--5---5-------|-(5)-----||
||------------------|---------------------|--------------|---------||
||o-----------------|---------------------|--------------|--------o||
||------------------|---------------------|--------------|---------||



  [Em] W          +W           +W           +W
|-----------|------------|------------|--------|
|--8--------|-(8)--------|-(8)--------|-(8)----|
|--9--------|-(9)--------|-(9)--------|-(9)----|
|--9--------|-(9)--------|-(9)--------|-(9)----|
|--7--------|-(7)--------|-(7)--------|-(7)----|
|-----------|------------|------------|--------|

|
| W +W +W +W
|-----------|------------|------------|--------|
|-!8--------|-(8)--------|-(8)--------|-(8)----|
|-!9--------|-(9)--------|-(9)--------|-(9)----|
|-!9--------|-(9)--------|-(9)--------|-(9)----|
|-!7--------|-(7)--------|-(7)--------|-(7)----|
|-----------|------------|------------|--------|



  Gtr IV                [Em]
<
Wx11 H. Q
|-------------|------------|
|-------------|---------8--|
|-------------|---------9--|
|-------------|---------9--|
|-------------|---------7--|
|-------------|------------|



                >                                 [Em]<
+W +H H W H.. E
|------------|-------------|----------|-------------|
|-(8)--------|-(8)---------|----------|-----------8-|
|-(9)--------|-(9)---------|----------|-----------9-|
|-(9)--------|-(9)---------|----------|-----------9-|
|-(7)--------|-(7)---------|----------|-----------7-|
|------------|-------------|----------|-------------|



>
+W +H H W W
|------------|-------------|----------|------|
|-(8)--------|-(8)---------|----------|------|
|-(9)--------|-(9)---------|----------|------|
|-(9)--------|-(9)---------|----------|------|
|-(7)--------|-(7)---------|----------|------|
|------------|-------------|----------|------|



  [Emadd2]Q  Q  Q  Q    +W           +W           +W
|-------------|------------|------------|--------|
|-------------|------------|------------|--------|
|----------0--|-(0)--------|-(0)--------|-(0)----|
|-------4-----|------------|------------|--------|
|----2--------|------------|------------|--------|
|-0-----------|------------|------------|--------|



  [Em]W          +W           +W           +W
|----------|------------|------------|--------|
|-8--------|-(8)--------|-(8)--------|-(8)----|
|-9--------|-(9)--------|-(9)--------|-(9)----|
|-9--------|-(9)--------|-(9)--------|-(9)----|
|-7--------|-(7)--------|-(7)--------|-(7)----|
|----------|------------|------------|--------|



  [Em]W          +W           +W           +W
|----------|------------|------------|--------|
|-8--------|-(8)--------|-(8)--------|-(8)----|
|-9--------|-(9)--------|-(9)--------|-(9)----|
|-9--------|-(9)--------|-(9)--------|-(9)----|
|-7--------|-(7)--------|-(7)--------|-(7)----|
|----------|------------|------------|--------|



  [Em]Gtr IV
W +W +H E E Q +W
|----------|------------|--------7------|--------|
|-8--------|-(8)--------|-(8)------8----|--------|
|-9--------|-(9)--------|-(9)--------9--|-(9)----|
|-9--------|-(9)--------|-(9)-----------|--------|
|-7--------|-(7)--------|-(7)-----------|--------|
|----------|------------|---------------|--------|



  [Em]W          +W           +W           +W
|----------|------------|------------|--------|
|-8--------|-(8)--------|-(8)--------|-(8)----|
|-9--------|-(9)--------|-(9)--------|-(9)----|
|-9--------|-(9)--------|-(9)--------|-(9)----|
|-7--------|-(7)--------|-(7)--------|-(7)----|
|----------|------------|------------|--------|



  [Em]W          +H     Q  Q    W              +W
|----------|--------7-----|--------------|-------------------|
|-8--------|-(8)-------8--|--------------|-------------------|
|-9--------|-(9)----------|-9------------|-(9)---------------|
|-9--------|-(9)----------|--------------|-------------------|
|-7--------|-(7)----------|--------------|-------------------|
|----------|--------------|--------------|-------------------|

|
| Gtrs I, II
| W W H E E E E E E E E E E E E
|----------|--------------|--------------|-------------------|
|----------|--------------|------7-7-7-7-|--7--7-7-7-7-7-7-7-|
|----------|--------------|------7-7-7-7-|--7--7-7-7-7-7-7-7-|
|----------|--------------|------7-7-7-7-|--7--7-7-7-7-7-7-7-|
|----------|--------------|--------------|-------------------|
|----------|--------------|--------------|-------------------|



  [Em]W               +W            E  E E E +E  Q  E   +W
|---------------|------------|--7-----------------|-------------------|
|-8-------------|-(8)--------|-----8---8-(8)------|-------------------|
|-9-------------|-(9)--------|-------9-------9----|-------------------|
|-9-------------|-(9)--------|------------------9-|-(9)---------------|
|-7-------------|-(7)--------|--------------------|-------------------|
|---------------|------------|--------------------|-------------------|

|
| <
| E Q E H +W +W E E E E E E E E
|---------------|------------|--------------------|-------------------|
|-7--8---8-8----|-(8)--------|-(8)----------------|--7--7-7-7-7-7-7-7-|
|-7h=9---9-9----|-(9)--------|-(9)----------------|--7--7-7-7-7-7-7-7-|
|-7h=9---9-9----|-(9)--------|-(9)----------------|--7--7-7-7-7-7-7-7-|
|-7-(7)--7-7----|-(7)--------|-(7)----------------|-------------------|
|---------------|------------|--------------------|-------------------|



  [Em]W               +W            E  E E E +E  Q  E   +W
|---------------|------------|--7-----------------|-------------------|
|-8-------------|-(8)--------|-----8---8-(8)------|-------------------|
|-9-------------|-(9)--------|-------9-------9----|-------------------|
|-9-------------|-(9)--------|------------------9-|-(9)---------------|
|-7-------------|-(7)--------|--------------------|-------------------|
|---------------|------------|--------------------|-------------------|

|
| <
| E Q E H +W +W E E E E E E E E
|---------------|------------|--------------------|-------------------|
|-7--8---8-8----|-(8)--------|-(8)----------------|--7--7-7-7-7-7-7-7-|
|-7h=9---9-9----|-(9)--------|-(9)----------------|--7--7-7-7-7-7-7-7-|
|-7h=9---9-9----|-(9)--------|-(9)----------------|--7--7-7-7-7-7-7-7-|
|-7-(7)--7-7----|-(7)--------|-(7)----------------|-------------------|
|---------------|------------|--------------------|-------------------|



  [Em]W               +W            E  E E E +E  Q   E   +W
|---------------|------------|--7------------------|-------------------|
|-8-------------|-(8)--------|-----8---8-(8)-------|-------------------|
|-9-------------|-(9)--------|-------9-------9-----|-------------------|
|-9-------------|-(9)--------|-------------------9-|-(9)---------------|
|-7-------------|-(7)--------|---------------------|-------------------|
|---------------|------------|---------------------|-------------------|

|
| <
| E Q E H +W +H E E E E E E E E E E E E
|---------------|------------|---------------------|-------------------|
|-7--8---8-8----|-(8)--------|-(8)--------7--7-7-7-|--7--7-7-7-7-7-7-7-|
|-7h=9---9-9----|-(9)--------|-(9)--------7--7-7-7-|--7--7-7-7-7-7-7-7-|
|-7h=9---9-9----|-(9)--------|-(9)--------7--7-7-7-|--7--7-7-7-7-7-7-7-|
|-7-(7)--7-7----|-(7)--------|-(7)-----------------|-------------------|
|---------------|------------|---------------------|-------------------|



  [Em]W               +W           E E E E +E  Q   E   +W
|---------------|------------|-7-----------------|-------------------|
|-8-------------|-(8)--------|---8---8-(8)-------|-------------------|
|-9-------------|-(9)--------|-----9-------9-----|-------------------|
|-9-------------|-(9)--------|-----------------9-|-(9)---------------|
|-7-------------|-(7)--------|-------------------|-------------------|
|---------------|------------|-------------------|-------------------|

|
| < <
| E Q E H +W E E E E E E E E E E E E E E E E
|---------------|------------|-------------------|-------------------|
|-7--8---8-8----|-(8)--------|-7-7-7-7--7--7-7-7-|--7--7-7-7-7-7-7-7-|
|-7h=9---9-9----|-(9)--------|-7-7-7-7--7--7-7-7-|--7--7-7-7-7-7-7-7-|
|-7h=9---9-9----|-(9)--------|-7-7-7-7--7--7-7-7-|--7--7-7-7-7-7-7-7-|
|-7-(7)--7-7----|-(7)--------|-------------------|-------------------|
|---------------|------------|-------------------|-------------------|



  [Em]W               +W               E  E E E +E  Q   E   +W
|---------------|---------------|--7------------------|-------------------|
|-8-------------|-(8)-----------|-----8---8-(8)-------|-------------------|
|-9-------------|-(9)-----------|-------9-------9-----|-------------------|
|-9-------------|-(9)-----------|-------------------9-|-(9)---------------|
|-7-------------|-(7)-----------|---------------------|-------------------|
|---------------|---------------|---------------------|-------------------|

|
| < <
| E Q E H H Q E E +E E E E E E E E E E E E E E E E
|---------------|---------------|---------------------|-------------------|
|-7--8---8-8----|--------8----8-|-(8)-7-7-7--7--7-7-7-|--7--7-7-7-7-7-7-7-|
|-7h=9---9-9----|--------9----9-|-(9)-7-7-7--7--7-7-7-|--7--7-7-7-7-7-7-7-|
|-7h=9---9-9----|--------9--9-9-|-(9)-7-7-7--7--7-7-7-|--7--7-7-7-7-7-7-7-|
|-7-(7)--7-7----|--------7--7-7-|-(7)-----------------|-------------------|
|---------------|---------------|---------------------|-------------------|



  [Em]W               +W              +W           +W
|---------------|---------------|------------|--------|
|-8-------------|-(8)-----------|-(8)--------|-(8)----|
|-9-------------|-(9)-----------|-(9)--------|-(9)----|
|-9-------------|-(9)-----------|-(9)--------|-(9)----|
|-7-------------|-(7)-----------|-(7)--------|-(7)----|
|---------------|---------------|------------|--------|

|
| E Q E H H Q E E W W
|---------------|---------------|------------|--------|
|-7--8---8-8----|--------8----8-|------------|--------|
|-7h=9---9-9----|--------9----9-|------------|--------|
|-7h=9---9-9----|--------9--9-9-|------------|--------|
|-7-(7)--7-7----|--------7--7-7-|------------|--------|
|---------------|---------------|------------|--------|

|
| Gtrs V, VI
| <
| W W W +W
|---------------|---------------|------------|--------|
|---------------|---------------|------------|--------|
|---------------|---------------|------------|--------|
|---------------|---------------|--2---------|-(2)----|
|---------------|---------------|--2---------|-(2)----|
|---------------|---------------|--0---------|-(0)----|



Distorted Part
Q=160
    [Em]Gtr V                                               [Bm]
PM| PM| PM|
Q. E E E S E. +E E E E S E. E E S E. Q E E Q +H Q Q
||------------------|--------------------|-----------------|------------------|
||o-----------------|--------------------|-----------------|------------------|
||------------------|--------------------|-----------------|------------------|
||-------------4h5--|-(5)-5-----4h5------|--4h5--4---------|------------------|
||o-7----7----------|--------------------|----------5h7----|-------------7----|
||--0----0-0-0------|-------0-0------0-0-|--------------7--|-(7)------7--0----|

|
| Gtr VI
| PM| PM| PM|
| Q. E E E Q +E E E E Q E E Q Q E E Q +E E Q Q E E
||------------------|--------------------|-----------------|------------------|
||o-----------------|--------------------|-----------------|------------------|
||------------------|--------------------|-----------------|------------------|
||------------------|--------------------|-/9----7---------|------------------|
||o-7----7-----7----|-(7)-7-----7--------|----------7h9-5--|-(5)-5-5--5----5--|
||--0----0-0-0------|-------0-0------0-0-|-----------------|-------------7----|



1.,2.,3.
  [Em]       PM|              PM|        PM|   [Em]   [D]   [C]
Q. E E E S E. +E E E E S E. E E Q Q q Q +W
|-----------------|----------------------|-------------|-----------------||
|-----------------|----------------------|-------------|----------------o||
|-----------------|----------------------|-------------|-----------------||
|------------4h5--|-(5)-5-----4h5--------|-5--4--------|-----------------||
|-7----7----------|----------------------|-7--5--7--7--|-(7)------------o||
|-0----0-0-0------|-------0-0--------0-0-|-------8--8--|-(8)-------------||

|
| Q. E E E Q +E E E E E E E E Q Q q Q +E E Q Q Q
|-----------------|----------------------|-------------|-----------------||
|-----------------|----------------------|-------------|----------------o||
|-----------------|----------------------|-------------|-----------------||
|-----------------|----------------------|-5--4--------|-----------------||
|-7----7-----7----|-(7)-7-----7----7-----|-7--5--7--7--|-(7)-7-7--7--7--o||
|-0----0-0-0------|-------0-0--------0-0-|-------8--8--|-(8)-8-8--8--8---||



4.
  [Em]Q  [D]Q  [C]Q  Q    +Q   E E E E E E   [Esus2]W       [D5]
|-------------|------------------|------------|
|-------------|------------------|------------|
|-------------|------------------|------------|
|-5--4--7--9--|-(9)--7p5-4h5-4h5-|-4----------|
|-7--5--------|------------------|------------|
|-------------|------------------|------------|

|
| Q Q q Q +Q Q Q Q H q Q
|-------------|------------------|------------|
|-------------|------------------|------------|
|-------------|------------------|------------|
|-5--4--------|------------------|-4----4--7--|
|-7--5--7--7--|-(7)--7---7---7---|-7----7--5--|
|-------8--8--|-(8)--8---8---8---|------------|



  +Q   E E Q  E  E   [B5]E E E E Q  E E   q  Q  Q  [D#m]Q
|------------------|----------------|-------------|
|------------------|----------------|-------------|
|------------------|----------------|-------------|
|-(4)--4-5-7--5--4-|-9-9-9------9-9-|-9--------4--|
|------------------|-9-9-9------9-9-|-9-----------|
|------------------|-7-7-7------7-7-|-7-----------|

|
| +H. E E E E E E Q E E q Q Q Q
|------------------|----------------|-------------|
|------------------|----------------|-------------|
|------------------|----------------|-------------|
|-(7)--------------|-9-9-9------9-9-|-9-----------|
|-(5)--------------|-9-9-9------9-9-|-9--------6--|
|-------------7h10-|-7-7-7------7-7-|-7-----------|



  [Em]Q  E E q  [Am]Q    +H.      E E   E E +H        [D]Q    +H.        [D#m]Q
|--------------|--------------|------------------|---------------|
|--------------|--------------|------------------|---------------|
|--------------|--------------|------------------|---------------|
|-5--5-5-5-----|--------------|------------------|------------4--|
|-----------0--|-(0)------0h2-|-3h5-(5)-------5--|-(5)-----------|
|--------------|--------------|------------------|---------------|

|
| PM|
| Q Q Q Q +H. E E E Q E E E Q +H E E Q
|--------------|--------------|------------------|---------------|
|--------------|--------------|------------------|---------------|
|--------------|--------------|------------------|---------------|
|--------------|--------------|---------------4--|-(4)-----------|
|-7--7---7-----|--------------|------------------|------------6--|
|-----------8--|-(8)------7h8-|-7p5-----5-5-0----|--------5-5----|



  [Em]Q  E E q  [Am]Q    +H.      E E   E E E E E  E [F#5]Q    +Q   [G5]H    [D#m]Q
|--------------|--------------|-----------------|--------------|
|--------------|--------------|-----------------|--------------|
|--------------|--------------|-----------------|--------------|
|-5--5-5-5-----|--------------|-4h5p4---4-------|-----------4--|
|-----------0--|-(0)------6h7-|-------7---h7-4--|-(4)--5-------|
|--------------|--------------|--------------2--|-(2)--3-------|

|
| Q Q Q Q +H. E E E E E E E E Q +Q H Q
|--------------|--------------|-----------------|--------------|
|--------------|--------------|-----------------|--------------|
|--------------|--------------|-----------------|--------------|
|--------------|--------------|-----------------|--------------|
|-7--7---7--3--|-(3)------2h3-|-5p3----------4--|-(4)--5----6--|
|--------------|--------------|-----7p5-7p=5-2--|-(2)--3-------|



    [Em]Q  E E q  [Am]Q    +H.      E E   E E +H        [D]Q    +H.        [D#m]Q
||---------------|--------------|------------------|----------------|
||o--------------|--------------|------------------|----------------|
||---------------|--------------|------------------|----------------|
||--5--5-5-5-----|--------------|------------------|------------4---|
||o-----------0--|-(0)------0h2-|-3h5-(5)-------5--|-(5)------------|
||---------------|--------------|------------------|----------------|

|
| PM|
| Q E E Q Q +H. E E E Q E E E Q +H E E Q
||---------------|--------------|------------------|----------------|
||o--------------|--------------|------------------|----------------|
||---------------|--------------|------------------|----------------|
||---------------|--------------|---------------4--|-(4)------------|
||o-7--7-7-7-----|--------------|------------------|------------6---|
||------------8--|-(8)------7h8-|-7p5-----5-5-0----|--------5-5-----|



1.,2.
  [Em]Q  E E q  [Am]Q    +H.      E E   E E E E E  E [F#5]Q    +Q   [G5]H    [D#m]Q
|--------------|--------------|-----------------|---------------||
|--------------|--------------|-----------------|--------------o||
|--------------|--------------|-----------------|---------------||
|-5--5-5-5-----|--------------|-4h5p4---4-------|-----------4---||
|-----------0--|-(0)------6h7-|-------7---h7-4--|-(4)--5-------o||
|--------------|--------------|--------------2--|-(2)--3--------||

|
| Q E E Q Q +H. E E E E E E E E Q +Q H Q
|--------------|--------------|-----------------|---------------||
|--------------|--------------|-----------------|--------------o||
|--------------|--------------|-----------------|---------------||
|--------------|--------------|-----------------|---------------||
|-7--7-7-7--3--|-(3)------2h3-|-5p3----------4--|-(4)--5----6--o||
|--------------|--------------|-----7p5-7p=5-2--|-(2)--3--------||



3. Q=120
  E E E E E  E [E]Q    +Q   H.         [D]W              [C] +W             W
|-----------------|--------------||--------------|---------------|------|
|-----------------|--------------||--------------|---------------|------|
|-----------------|--------------||--------------|---------------|------|
|-4h5p4---4-------|------2-------||-0------------|--(0)----------|------|
|-------7---h7----|--------------||--------------|---------------|------|
|--------------0--|-(0)----------||--------------|---------------|------|

|
| E E E E E E Q +Q H. W +W W
|-----------------|--------------||--------------|---------------|------|
|-----------------|--------------||--------------|---------------|------|
|-----------------|--------------||--------------|---------------|------|
|-----------------|------2-------||-0------------|--(0)----------|------|
|-5p3-------------|--------------||--------------|---------------|------|
|-----7p5-7p=5-0--|-(0)----------||--------------|---------------|------|

|
| Gtr I
| W W Q. E Q Q Q. E H W
|-----------------|--------------||--------------|---------------|------|
|-----------------|--------------||--------------|---------------|------|
|-----------------|--------------||--------------|-^-9-----------|------|
|-----------------|--------------||------7-------|-^10----9-9----|------|
|-----------------|--------------||-5------7--8--|---------------|------|
|-----------------|--------------||--------------|---------------|------|



Breakdown of Sorts
    [Dm]Q.    [Em]E +H        [C]Q   +E  [E5] E   H
||------------------|--------------------|
||o-----------------|--------------------|
||------------------|--------------------|
||--3-----5-(5)-----|--------------------|
||o-----------------|-3---(3)S=7---7-----|
||------------------|--------------------|

|
| Q E E +Q Q Q. E H
||------------------|--------------------|
||o-----------------|--------------------|
||------------------|--------------------|
||------7-----------|----------9---9-----|
||o-5-----7-(7)--8--|-7-------(7)-(7)----|
||------------------|-8------------------|



  [Bm]Q.   E Q  E  E   [A]Q.   E  Q.   +E
|----------------|---------------------||
|----------------|--------------------o||
|----------------|---------------------||
|-9----9-9--9h10-|-7h===9p=7----(7)\---||
|----------------|--------------------o||
|----------------|---------------------||

|
| Q. E Q E E Q Q +H
|----------------|---------------------||
|----------------|--------------------o||
|-7----7-7-------|---------------------||
|-----------9h10-|-7-------------------||
|----------------|----7---(7)---------o||
|----------------|---------------------||



  [Dm]Q.    [Em]E +H        [C]Q   +E  [E5] E   H       [Bm]Q.   E Q  E  E   [A]H..           +E
|-----------------|--------------------|----------------|--------------------|
|-----------------|--------------------|----------------|--------------------|
|-----------------|--------------------|----------------|--------------------|
|-3-----5-(5)-----|--------------------|-9----9-9--9h10-|-7-------------(7)\-|
|-----------------|-3---(3)S=7---7-----|----------------|--------------------|
|-----------------|--------------------|----------------|--------------------|

|
| Q E E +Q Q Q. E H Q. E Q E E Q Q +H
|-----------------|--------------------|----------------|--------------------|
|-----------------|--------------------|----------------|--------------------|
|-----------------|--------------------|-7----7-7-------|--------------------|
|-----7-----------|----------9---9-----|-----------9h10-|-7------------------|
|-5-----7-(7)--8--|-7-------(7)-(7)----|----------------|------7--(7)--------|
|-----------------|-8------------------|----------------|--------------------|



  [Dm]Q.    [Em]E +H        [C]Q   +E  [E5] E   H       [Bm]Q.   E Q  E  E   [A]W
|-----------------|--------------------|----------------|--------------|
|-----------------|--------------------|----------------|--------------|
|-----------------|--------------------|----------------|--------------|
|-3-----5-(5)-----|--------------------|-9----9-9--9h10-|-7------------|
|-----------------|-3---(3)S=7---7-----|----------------|--------------|
|-----------------|--------------------|----------------|--------------|

|
| Q E E +Q Q Q. E H Q. E Q E E Q Q +H
|-----------------|--------------------|----------------|--------------|
|-----------------|--------------------|----------------|--------------|
|-----------------|--------------------|-7----7-7-------|--------------|
|-----7-----------|----------9---9-----|-----------9h10-|-7------------|
|-5-----7-(7)--8--|-7-------(7)-(7)----|----------------|----7--(7)----|
|-----------------|-8------------------|----------------|--------------|



    [Dm]Gtr I [Em]       [F]     [C]         [E5]
Q E E +Q Q Q. E H
||------------------|---------------------|
||o-----------------|---------------------|
||------------------|---------------------|
||--3---7-5-(5)--7--|-10--------9---9-----|
||o-5-----7-(7)--8--|--7-------(7)-(7)----|
||------------------|--8------------------|

|
| Gtr II
| Q. E +H Q +E E H
||------------------|---------------------|
||o-----------------|---------------------|
||------------------|---------------------|
||--3-----5-(5)-----|---------------------|
||o-5-----7-(7)-----|--3---(3)S=7---7-----|
||------------------|---------------------|



  [Bm]Q.   E Q   E  E   [A]Q   Q  +H
|-----------------|-------------------||
|-----------------|------------------o||
|-7----7-7\-------|-------------------||
|------------9h10-|-7\----------------||
|-----------------|-----7--(7)-------o||
|-----------------|-------------------||

|
| Q. E Q E E H. E E
|-----------------|-------------------||
|-----------------|------------------o||
|-----------------|-------------------||
|-9----9-9---9h10-|-7-----------2h3---||
|-----------------|------------------o||
|-----------------|-------------------||



  [Dm]Gtr I [Em]       [F]     [C]         [E5]             [Bm]                  [A]
Q E E +Q Q Q. E H Q. E Q E E Q Q +H
|-----------------|---------------------|-----------------|-----------------|
|-----------------|---------------------|-----------------|-----------------|
|-----------------|---------------------|-7----7-7\-------|-----------------|
|-3---7-5-(5)--7--|-10--------9---9-----|------------9h10-|-7\--------------|
|-5-----7-(7)--8--|--7-------(7)-(7)----|-----------------|-----7--(7)------|
|-----------------|--8------------------|-----------------|-----------------|

|
| Gtr II
| Q. E +H Q +E E H Q. E Q E E H. E E
|-----------------|---------------------|-----------------|-----------------|
|-----------------|---------------------|-----------------|-----------------|
|-----------------|---------------------|-----------------|-----------------|
|-3-----5-(5)-----|---------------------|-9----9-9---9h10-|-7-----------2h3-|
|-5-----7-(7)-----|--3---(3)S=7---7-----|-----------------|-----------------|
|-----------------|---------------------|-----------------|-----------------|

|
| Gtr IV
| W W H Q Q W
|-----------------|---------------------|-7------7---7----|-5---------------|
|-----------------|---------------------|-----------------|-----------------|
|-----------------|---------------------|-----------------|-----------------|
|-----------------|---------------------|-----------------|-----------------|
|-----------------|---------------------|-----------------|-----------------|
|-----------------|---------------------|-----------------|-----------------|



  [Dm]Q   E [Em]E +Q   [F]Q    [C] Q.      [E5] E   H       [Bm]Q.   E Q   E  E   [A]Q   Q  +H
|-----------------|---------------------|-----------------|-----------------|
|-----------------|---------------------|-----------------|-----------------|
|-----------------|---------------------|-7----7-7\-------|-----------------|
|-3---7-5-(5)--7--|-10--------9---9-----|------------9h10-|-7\--------------|
|-5-----7-(7)--8--|--7-------(7)-(7)----|-----------------|-----7--(7)------|
|-----------------|--8------------------|-----------------|-----------------|

|
| Q. E +H Q +E E H Q. E Q E E H. E E
|-----------------|---------------------|-----------------|-----------------|
|-----------------|---------------------|-----------------|-----------------|
|-----------------|---------------------|-----------------|-----------------|
|-3-----5-(5)-----|---------------------|-9----9-9---9h10-|-7-----------2h3-|
|-5-----7-(7)-----|--3---(3)S=7---7-----|-----------------|-----------------|
|-----------------|---------------------|-----------------|-----------------|

|
| W W Q. E Q Q W
|-----------------|---------------------|-7----7-7---7----|-5---------------|
|-----------------|---------------------|-----------------|-----------------|
|-----------------|---------------------|-----------------|-----------------|
|-----------------|---------------------|-----------------|-----------------|
|-----------------|---------------------|-----------------|-----------------|
|-----------------|---------------------|-----------------|-----------------|



Outro
Q=135
    [E7]Gtr I[Em]                               [Bm]     [E]        [Am]
Q. q E Q +E E E E E E E E Q E E +E E Q +W
||---------------|--------------------|-----------------|--------|
||o--------------|--------------------|-----------------|--------|
||---------------|--------------------|-----------------|--------|
||-------5----5--|-(5)----5-7-9p7-5p4-|-4--5------------|--------|
||o-5----7----7--|-(7)-/7-------------|------7-(7)-5-3--|-(3)----|
||--0----0----0--|-(0)----------------|-----------------|--------|

|
| Gtr II
| Q. q E Q +E E E E E E E E Q E E +E E Q +W
||---------------|--------------------|-----------------|--------|
||o--------------|--------------------|-----------------|--------|
||---------------|--------------------|-----------------|--------|
||-------5----5--|-(5)----5-7-5p4-----|-4--5-2-(2)-0-2--|-(2)----|
||o-5----7----7--|-(7)-/7---------5---|-5------------3--|-(3)----|
||--0----0----0--|-(0)--------------7-|-7----0-(0)---5--|-(5)----|



  [E7]Q.   [Em]q  E Q    +E   E E E E E E E   [Bm]S E. E [E]Q     E [Am]Q    +W      4x
|--------------|--------------------|-------------------|---------||
|--------------|--------------------|-------------------|--------o||
|--------------|------------------4-|-4h5--4------------|---------||
|------5----5--|-(5)----5-7-9p7-7---|--------7-----5----|---------||
|-5----7----7--|-(7)-/7-------------|----------------7--|-(7)----o||
|-0----0----0--|-(0)----------------|-------------------|---------||

|
| Q. q E Q +E E E E E E E E Q E E +E E Q +W 4x
|--------------|--------------------|-------------------|---------||
|--------------|--------------------|-------------------|--------o||
|--------------|--------------------|-------------------|---------||
|------5----5--|-(5)----5-7-5p4-----|-4----5-2-(2)-0-2--|-(2)-----||
|-5----7----7--|-(7)-/7---------5---|-5--------------3--|-(3)----o||
|-0----0----0--|-(0)--------------7-|-7------0-(0)---5--|-(5)-----||


Performance Notes
-----------------

The whole stupid junk with the two left guitars in the intro makes some sections impossible to be

sure about, but I did my best...the hard part is telling which guitar plays which notes.
There is one bar that sounds like ass in the midi, so I listened to it about 390239 times to be sure

about it and unfortunately i DO have the right notes...it's the first 8th note of measure 222.
I got some parts of this (like the solo and part of the outro) from the wonderful tab by Jeremy

Disten and Bo Pederson.

Duration Legend
---------------
W - whole; H - half; Q - quarter; E - 8th; S - 16th; T - 32nd; X - 64th; a - acciaccatura

+ - note tied to previous; . - note dotted; .. - note double dotted
Uncapitalized letters represent notes that are staccato (1/2 duration)
Irregular groupings are notated above the duration line
Duration letters will always appear directly above the note/fret number it represents the
duration for. Duration letters with no fret number below them represent rests. Multi-
bar rests are notated in the form Wxn, where n is the number of bars to rest for. Low
melody durations appear below the staff

Tablature Legend
----------------

h - hammer-on
p - pull-off
b - bend
pb - pre-bend
r - bend release (if no number after the r, then release immediately)
/\ - slide into or out of (from/to "nowhere")
s - legato slide
S - shift slide
- natural harmonic
(n) - artificial harmonic
n(n) - tapped harmonic
~ - vibrato
tr - trill
T - tap
TP - trem. picking
PM - palm muting
\n/ - tremolo bar dip; n = amount to dip
\n - tremolo bar down
n/ - tremolo bar up
/n\ - tremolo bar inverted dip
= - hold bend; also acts as connecting device for hammers/pulls
<> - volume swell (louder/softer)
x - on rhythm slash represents muted slash
o - on rhythm slash represents single note slash

Misc Legend
-----------

| - bar
|| - double bar
||o - repeat start
o|| - repeat end
*| - double bar (ending)
: - bar (freetime)
$ - Segno
& - Coda
Tempo markers - = BPM(8/16=s8/s16), where s8 = swing 8ths, s16 = swing 16ths

Important: The song above is NOT stored on the Chordie server. The original song is hosted at www.xguitar.com. Chordie works as a search engine and provides on-the-fly formatting. Chordie does not index songs against artists'/composers' will. To remove this song please click here.

Text color:
Chord color:
Chord grids: 
Font size:    
Page size: 

A Am B5 Bbsus2 Bm C C#m D D#m D5 Dm E E5 E7 Em Emadd2 Esus2 F F# F#5 G G5 Gm
variations - click chord images

Login - add to songbook

Transpose chords

Tuning

Rating click stars to rate

Layout
Accuracy

SHARE PAGE  




You need to log in to post comments