Guitar Tabs, Chords and Lyrics


Madrigal    Opeth



OPETH - MADRIGAL
                        From the Album MAYH
                    Copyright 1997 Candlelight  RECORDS

                       Version 1.0



  - pam mute                     /  - slide up to
\  - slide down to                ~  - vibrato
h  - hammer on                    b  - bend
p  - pull off                          Suffixes for bend
ph - pinch harmonic                     f - full bend    h - half bend
*  - see comment                        r - release      t - tap bend
X  - percussion note                    ~ - vibrato bend
@  - slight palm mute             ()  - ghost note, sustained note
"  - tremolo pick until next note

Opeth - MADRIGAL

Tune to E (E,A,D,G,B,E)

Intro (fade in)DELAY


|---------------------------------|-2---------------------------|-2--------------------------|
|---------------------------------|-------1---0-----------------|-------1--------------------|
|---------------------------------|-----2-0---0--------0--------|-----2-0---0--------0-------|
|--4-4-4-5-5-5--------------------|-----------------------/3-2--|-----------2-----------/3-2-|
|--7-7-7-7-7-7-7-7-7-7-7-7-7-7-7--|---0-------------3-----------|---0-------------3----------|
|--------------7-7-8-8-8-8-8-8-8--|-0---------0--1--------------|-0---------0--1-------------|

					(swell volume) i let theme to you
|----------------------------0----|-2---------------------------|-2--------------------------|
|----------------------------0----|-------1---0-----------------|-------1--------------------|
|--0------0------0--------5-------|-----2-0---0--------0--------|-----2-0---0--------0-------|
|----4------4------4------7-------|-----------------------/3-2--|-----------2-----------/3-2-|
|------7------7------7--0---------|---0-------------3-----------|---0-------------3----------|


Important: The song above is NOT stored on the Chordie server. The original song is hosted at www.xguitar.com. Chordie works as a search engine and provides on-the-fly formatting. Chordie does not index songs against artists'/composers' will. To remove this song please click here.

This song is displayed as text-only. Transposing and tuning is only available for chordpro-songs.

Login - add to songbook

Rating click stars to rate

Layout
Accuracy

SHARE PAGE  




You need to log in to post comments