Chordie logo

All for You   Our Lady Peace



artist: Our Lady Peace
song: All For You
album: Gravity-Track 01
tabber: Willy Prince wprince604@hotmail.com
tuning: half a step down with drop D (Db,Ab,Db,Gb,Bb,eb)

(intro 00:08) really piano arranged for guitar use lots a reverb
eb:----------------------------------------------------|
Bb:----------------------------------------------------|
Gb:----------17-16-16--12--------------17-16-16--12----|
Db:--7--10---------------------7--10-------------------|
Ab:----------------------------------------------------|
Db:----------------------------------------------------|

heavy part-chorus(may not be exact strum pattern)
|------------------------------------------|
|------------------------------------------|
|----------------5-5--5--------------------|
|----------------3-3--3--9-9--9--5-5-5-5---|
|---0-0--0-0--0--3-3--3--7-7--7--5-5-5-5---|
|---0-0--0-0--0----------7-7--7--5-5-5-5---|

verse
|------------------------------------------------------|
|------------------------------------------------------|
|---2-2--4-2--5-2--2-2-2--2--4-2--5-2---2-2--4-2--5-2--|
|------------------------------------------------------|
|------------------------------------------------------|
|------------------------------------------------------|

bridge(repeat the verse before this)
|-----------------------------------------------------|
|-----------------------------------------------------|
|-----------------------------------------------------|
|-----------------------------------------------------|
|---0-0--2-0--3-0--0-0-0--0--2-0-3-0--0-0-0-2-0-3-0---|
|-----------------------------------------------------|

clean part after bridge(sounds good with lots of reverb and phaser)
|------------------------------------|----------------------|
|---3-3-3-3--------------------------|---3-3-3--------------|
|---2-2-2-2---5-5-5------------------|---2-2-2---5-5-5------|
|---0-0-0-0---3-3-3--9-9-9-9---5-5---|---0-0-0---3-3-3---9--|
|-------------3-3-3--7-7-7-7---5-5---|-----------3-3-3---7--|
|--------------------7-7-7-7---5-5---|-------------------7--|
                                                                                                                                                    heart....
back to chorus
(play intro under it if you like)


Important: The song above is NOT stored on the Chordie server. The original song is hosted at www.xguitar.com. Chordie works as a search engine and provides on-the-fly formatting. Chordie does not index songs against artists/composers will. To remove this song please click here.

This song is displayed as text-only. Transposing and tuning is only available for chordpro-songs.

Login - add to songbook

Rating click stars to rate

Layout
Accuracy

SHARE PAGE  



You need to log in to post comments