Guitar Tabs, Chords and Lyrics


Made of Steel   Our Lady Peace



This might be in different tuning (drop) than standard im not sure as i have not tuned my guitar for quite some time ...dont mind the Gtr X and Y

Intro
---------------------------------------------------------------------------
---------------------------------------------------------------------------
--7/12--11-12-9-11-12-16-11-12-9-7-----------------------------------------
---------------------------------------------------------------------------
---------------------------------------------------------------------------
---------------------------------------------------------------------------

Verse (figure out stumming pat.)
GtrX
--x--x---------------------
--3--3-----1---------------
--0--2-----0---------------
--x--0--2--2---------------
--3-----2--3---------------
--------x--x---------------

GtrY ..comes in later
---------------------------for the second "gets this hard" at the end of the verse
---------------------------Play:
-----7-----5---------------   ---7------
--5--7--7--5---------------   ---7------
--5--5--7--3---------------   ---5------
--3-----5------------------   ----------

Chorus (both guitars?)
--------------------------- (no strumming pattern im pretty sure its a
---------------------------  straight 1,2,3,4 down stroke (for each chord))
-----7-----5---------------
--5--7--7--5---------------
--5--5--7--3---------------
--3-----5------------------

Im not made of steel...(this is close but not quite..)
------------------------------------------------------
--------------------0---------------------------------
---7---5---3---2-----0--------------------------------
--7---5---3---3--3------------------------------------
------------------------------------------------------
------------------------------------------------------

followed by the intro again (post chorus)

2nd verse same as the first (guitars X and Y)

Chorus

intro

Bridge:
"They nock you down....
--------------------------- (straight 1,2,3,4 down stroke..Palm muted)
---------------------------
-----7-----5---------------
--5--7--7--5---------------
--5--5--7--3---------------
--3-----5------------------

"..pick you up"
------------------------------------------------
------------------------------------------------
--------------7/12--11-12-9-7~------------------
------------------------------------------------
------------------------------------------------
------------------------------------------------
Play again...
then
GtrX
Im not made of steel...
------------------------
------------------------
--77--55----------------
--77--55--5~------------
--55--33--5~------------
----------3~------------

GtrY
------------------------ (during "of steel")
--12--------------------(repeat as required)
-----12-----------------
------------------------
------------------------
------------------------

"SOLO"
GtrX
------------------------------------------------------
------------------------------------------------------
--7-7-7-7-7-7-7-7--5-5-5-5----------------------------
--7-7-7-7-7-7-7-7--5-5-5-5--5-5-5-5-------------------
--5-5-5-5-5-5-5-5--3-3-3-3--5-5-5-5-------------------
------------------------------3-3-3-3-----------------

GtrY
------------------------------------------------------
------------------------------------------------------
--19-19-19-19-19-19-19-19--17-17-17-17--16-16-16-16---
------------------------------------------------------
------------------------------------------------------
------------------------------------------------------

SOLO cont..
Gtr X
------------------------------------------------------
------------------------------------------------------
--7-7-7-7--5-5-5-5------------------------------------
--7-7-7-7--5-5-5-5--5-5-5-5-5-5-5-5-------------------
--5-5-5-5--3-3-3-3--5-5-5-5-5-5-5-5-------------------
--------------------3-3-3-3-3-3-3-3-------------------

Gtr Y
------------------------------------------------------
------------------------------------------------------
--12---11--7--5-4-5--7--------------------------------
------------------------------------------------------
------------------------------------------------------
------------------------------------------------------

Chorus

last three chords...
---------------------------
---------------------------
--7--5---------------------
--7--5--5~-----------------
--5--3--5~-----------------


Important: The song above is NOT stored on the Chordie server. The original song is hosted at www.xguitar.com. Chordie works as a search engine and provides on-the-fly formatting. Chordie does not index songs against artists'/composers' will. To remove this song please click here.

This song is displayed as text-only. Transposing and tuning is only available for chordpro-songs.

Login - add to songbook

Rating click stars to rate

Layout
Accuracy

SHARE PAGE  




You need to log in to post comments