Guitar Tabs, Chords and Lyrics


Naveed  Our Lady Peace

|---------------------------------------------------|


|---------------------------------------------------|


|---0----------0-------------0----------0-----------|


|-5---5-3-3--5---5-5--3-3--5---5-3-3--5---5-5--6-6--|

  [G]                                       [G]                                             
|------------------------------------------------------------------
|-10h12-12-12--10h12-12-12--12-12p10-----10h12-12-12--10h12-12-12--
|------------------------------------12----------------------------
|------------------------------------------------------------------
|------------------------------------------------------------------
|------------------------------------------------------------------

                 [A]                        [A]                                             
-------------------------------------------------------------------------|
-12-12/15--15/17-14-14--14-14-14-14--14--15-14-14--17p14-14-14-14-14-15\-|
-----------------14-14--14-14-14-14--14--14-14-14--14----14-14-14-14-----|
-------------------------------------------------------------------------|
-------------------------------------------------------------------------|
-------------------------------------------------------------------------|

Fig.3
  [G]                                       [G]                                             
|------------------------------------------------------------------
|-10h12-12-12--10h12-12-12--12-12p10-----10h12-12-12--10h12-12-12--
|------------------------------------12----------------------------
|------------------------------------------------------------------
|------------------------------------------------------------------
|------------------------------------------------------------------

                 [A]                       [A]                                              
-------------------------------------------------------------------------------|
-12-12/15--15/17-14-14--14-14-14-14--14-15-15-15-15-15-15-15-15-17-17-17-17-17\|
-----------------14-14--14-14-14-14--14-14-14-14-14-14-14-14-14-14-14-14-14----|
-------------------------------------------------------------------------------|
-------------------------------------------------------------------------------|
-------------------------------------------------------------------------------|

Fig.4 (twelve string acoustic)
|-3-3-3-3-3--3-2--2-2---2-2-2-2-2--2-2--2-2--
|-3-3-3-3-3--3-3--3-3---3-3-3-3-3--3-3--3-3--
|-0-0-0-0-0--0-0--0-0---0-0-0-0-0--0-0--0-0--
|-0-0-0-0-0--0-0--0-0---0-0-0-0-0--0-0--0-0--
|-x-x-x-x-x--x-x--x-x---x-x-x-x-x--x-x--x-x--
|-3-3-3-3-3--3-3--3-3---3-3-3-3-3--3-3--3-3--
-0-0-0-0-0--0-0--0-0---0-0-0-0-0--0-0--0-0--|
-2-2-2-2-2--2-0--0-0---3-3-3-3-3--3-2--2-2--|
-2-2-2-2-2--2-2--2-2---2-2-2-2-2--2-2--2-2--|
-2-2-2-2-2--2-2--2-2---2-2-2-2-2--2-2--2-2--|
-0-0-0-0-0--0-0--0-0---0-0-0-0-0--0-0--0-0--|
--------------------------------------------|

(I didn't transcribe the rest of the electric parts, but they pretty much
follow the same chords as the acoustic, just played a little differently)
Fig.5
|-0-0-0-0-0--0-0--0-0---------3-3-3-3-3--3-3--3-3--
|-0-0-0-0-0--0-0--0-0--3-3-3--3-3-3-3-3--3-3--3-3--
|-x-x-x-x-x--x-x--x-x--2-2-2--0-0-0-0-0--0-0--0-0--
|-2-2-2-2-2--2-2--2-2--0-0-0--0-0-0-0-0--0-0--0-0--
|-2-2-2-2-2--2-2--2-2--x-x-0--x-x-x-x-x--x-x--x-x--
|-0-0-0-0-0--0-0--0-0--2-2----3-3-3-3-3--3-3--3-3--
-0-0-0-0-0--0-0--0-0--0-0-0-0-0--0-0--0-0--|
-2-2-2-2-2--2-2--2-2--3-3-3-3-3--3-2--2-2--|
-2-2-2-2-2--2-2--2-2--2-2-2-2-2--2-2--2-2--|
-2-2-2-2-2--2-2--2-2--2-2-2-2-2--2-2--2-2--|
-0-0-0-0-0--0-0--0-0--0-0-0-0-0--0-0--0-0--|
-------------------------------------------|

Fig.6
|-3-3-3-3-3--3-3--3-3--0-0-0-0-0--0-3--3-3--|
|-3-3-3-3-3--3-3--3-3--0-0-0-0-0--0-3--3-3--|
|-0-0-0-0-0--0-0--0-0--x-x-x-x-x--x-0--0-0--|
|-0-0-0-0-0--0-0--0-0--2-2-2-2-2--2-0--0-0--|
|-x-x-x-x-x--x-x--x-x--2-2-2-2-2--2-x--x-x--|
|-3-3-3-3-3--3-3--3-3--0-0-0-0-0--0-3--3-3--|

Fig.7
|-0-0-0-0-0--0-0--0-0--2-2-2-2-2--2-2--2-2-2--|
|-2-2-2-2-2--2-2--2-2--3-3-3-3-3--3-3--3-3-3--|
|-2-2-2-2-2--2-2--2-2--2-2-2-2-2--2-2--2-2-2--|
|-2-2-2-2-2--2-2--2-2--0-0-0-0-0--0-0--0-0-0--|
|-0-0-0-0-0--0-0--0-0--0-0-0-0-0--0-0--0-0-0--|
|---------------------------------------------|

Fig.8
|-0-0--0-3-3-3-3--3-3-3--3-3--3-3-3-3--3-3--|
|-0-0--0-3-3-3-3--3-3-3--3-3--3-3-3-3--3-3--|
|-x-x--x-0-0-0-0--0-0-0--0-0--0-0-0-0--0-0--|
|-2-2--2-0-0-0-0--0-0-x--x-x--x-x-x-x--x-x--|
|-2-2--2-x-x-x-x--x-x-3--3-3--3-3-3-3--3-3--|
|-0-0--0-3-3-3-3--3-3-----------------------|

Fig.9
|---------------|
|---------------|
|-3-3-3--2-0-2--|
|-3-3-3--2-0-2--|
|-1-1-1--0---0--|
|---------------|

Fig.10
|-3-3-3-3-3-3-3-3-3-3-3-3-3-3-3-3-3-3-3-3-3-3-3-3-3-3-3-3-3-3-3-3-3-3-3-3-|
|-3-3-3-3-3-3-3-3-3-3-3-3-3-3-3-3-3-3-0-0-0-0-0-0-0-0-0-0-0-0-0-0-0-0-0-0-|
|-0-0-0-0-0-0-0-0-0-0-0-0-0-0-0-0-0-0-0-0-0-0-0-0-0-0-0-0-0-0-0-0-0-0-0-0-|
|-0-0-0-0-0-0-0-0-0-0-0-0-0-0-0-0-0-0-x-x-x-x-x-x-x-x-x-x-x-x-x-x-x-x-x-x-|
|-x-x-x-x-x-x-x-x-x-x-x-x-x-x-x-x-x-x-3-3-3-3-3-3-3-3-3-3-3-3-3-3-3-3-3-3-|
|-3-3-3-3-3-3-3-3-3-3-3-3-3-3-3-3-3-3-------------------------------------|

Putting it together
fig.1 Come come Naveed x3
fig.1 Come come sail
fig.1 Come come Naveed x3
fig.2
fig.3
fig.4 Are you there, and is it comfortable?
fig.4 Did you try to escape, try to escape, the population?
fig.5 The pressure is deceiveing, and for you particularly
fig.6 Should a young man die, oh oh
fig.7 Let him die if he wants to, die if he wants to
fig.8 I cant't live here anymore
fig.8 It's hard when you reach for that floor
fig.8 And there's something that tears me inside, so I can't
fig.9 Go
fig.9
fig.2
fig.3 Brother are you there? Now tell me if it's wonderful, or
fig.3 Were you hoping to find, hoping to find, something a little more?
fig.5 Climbing down the hours, I need to know now, do the hands of time
only make this chapter?
fig.6 I'll have to try once again, oh oh
fig.7 I'll have to try when I want to, try when I want to
fig.8 I cant't live here anymore
fig.8 It's hard when you reach for that floor
fig.8 There's something that tears me inside
fig.8 But I cant't live here anymore,
(I didn't bother to figure this part out because there's not much going on
anyway. The chords aren't actually played, but they work if you wanna use em)
Any[G]more,     any[Cadd9]more[G] [Cadd9]
[G]There he's on his knees agian, trying hard to understand why N[Cadd9]aveed would let
a young man die
[G]Convinced that he might break, he reaches for that phone, a[Cadd9]nother day is gone
Oh, a[G]nother day is gone oh, a[Cadd9]nother day is
fig.10 gone is gone is gone is gone is gone is gone is gone is gone
fig.8 Is gone is gone is gone is gone
fig.8 Is gone is gone is gone is gone
fig.8 And I cant't live here anymore
fig.8 But it's hard when you reach for that floor
fig.8 There's something that tears me inside
fig.8 But I cant't live here anymore
fig.8 I cant't live here anymore x4
fig.9
fig.1 (repeat until end)

Important: The song above is NOT stored on the Chordie server. The original song is hosted at www.xguitar.com. Chordie works as a search engine and provides on-the-fly formatting. Chordie does not index songs against artists'/composers' will. To remove this song please click here.

Text color:
Chord color:
Chord grids: 
Font size:    
Page size: 

A Cadd9 G
variations - click chord images

Login - add to songbook

Transpose chords

Tuning

Rating click stars to rate

Layout
Accuracy

SHARE PAGE  




You need to log in to post comments