Guitar Tabs, Chords and Lyrics


Rotten to the Core    Overkill



redhurley182@hotmail.com (dustin Ruther


Rotten to the Core
Overkill

E||----------------------||---------------------------------|
B||----------------------||---------------------------------|
G||----------------------||*--------------------------------|
D||--10--------5----7----||*--9-----9--------9-----9--------|
A||--10--------5----5----||---7-----7-----8--7-----7-----8--|
E||--8---------3---------||-----0-0---0-0-6----0-0---0-0-6--|

                                 3x
---------------------------------||----------------------------|
---------------------------------||----------------------------|
--------------------------------*||----------------------5-----|
--9-----9-----------------------*||--------------5-5-7-7-------|
--7-----7-----8--8-----3-----5---||--3-3-5-5-7-7---------------|
----0-0---0-0-6--6-0-0-1-0-0-3---||----------------------------|

                                                     2x
|-----------------------|----------------------------||----------------------|
|-----------------------|----------------------------||----------------------|
|*----------------------|---------------------------*||----------------------|
|*-----------------7----|---------------------------*||-----------------7----|
|---10--------5----5----|------7-----8-----10-----8--||--10--------5----5----|
|---8---------3---------|--0-0---0-0---0-0----0-0----||--8---------3---------|

-------------------------------------|---------------------------------|
-------------------------------------|---------------------------------|
-------------------------------------|---------------------------------|
-------------------------------------|---------------------------7--7--|
------7-----8-----10-----8------10-8-|------7-----8-----10-----8-5--5--|
--0-0---0-0---0-0----0-0---8-10------|--0-0---0-0---0-0----0-0---------|


-------------------------------------|---------------------------------||
-------------------------------------|---------------------------------||
-------------------------------------|---------------------------------||
-------------------------------------|---------------------------7--7--||
------7-----8-----10-----8------10-8-|------7-----8-----10-----8-5--5--||


Important: The song above is NOT stored on the Chordie server. The original song is hosted at www.xguitar.com. Chordie works as a search engine and provides on-the-fly formatting. Chordie does not index songs against artists/composers will. To remove this song please click here.

This song is displayed as text-only. Transposing and tuning is only available for chordpro-songs.

Login - add to songbook

Rating click stars to rate

Layout
Accuracy

SHARE PAGE  




You need to log in to post comments