Guitar Tabs, Chords and Lyrics


Half Past Dead    Overkill



OVERKILL - HALF PAST DEAD
(From The Underground And Below, 1997)

Key
= after note = vibrato
^ after note = heavy vibrato
\\ = slide down
/ = slide up
+ = tap
h = hammer
p = pull
n = natural harmonic
s = pinching harmonic (squeal)
* = tremolo pick
t = trill
b = bend
|-3-| = triplet

n number above the tab = play the first part then the first finishing part
			 play the first part a second time and then play the second finishing part
			 etc.

Tune Down 1 Step

Riff 1

D ---------------------------------------------------------------10b12======
A -8--10----------8--10--8-7--------8--10-----------8--10---8-10------------
F ---------------------------8----------------------------------------------
C --------------------------------------------------------------------------
G --------------------------------------------------------------------------
D --------------------------------------------------------------------------

Riff 1A

D -----------------------------------------------------------------------15b17======
A -12-13-----------12--13---12------------12--13-----------12--13--12-13------------
F -----------------------------14-12------------------------------------------------
C ----------------------------------------------------------------------------------
G ----------------------------------------------------------------------------------
D ----------------------------------------------------------------------------------

Riff 2

D -----------------------------------------------------------------------------------------------------------
A -----------------------------------------------------------------------------------------------------------
F -----------------------------------------------------------------------------------------------------------
C -2------3------2------3--5-5-5--2------3------2------3--5--8--2------3------2------3--5-5-5--2------3------
G -2------3------2------3--5-5-5--2------3------2------3--5--8--2------3------2------3--5-5-5--2------3------
D -0------1------0------1--3-3-3--0------1------0------1--3--6--0------1------0------1--3-3-3--0------1------

D -----------------------------------------------------------------------------------------------------------------
A -----------------------------------------------------------------------------------------------------------------
F -------0--------0------------------------------------------------------------------------------------------------
C ----2--------1-----2--2--2--3--2--2--2--2--2--3--5-5-5--2--2--2--3--2--2--2--2--2--3--5--8--2--2--2--3--2--2--2--
G -3--------2--------2--2--2--3--2--2--2--2--2--3--5-5-5--2--2--2--3--2--2--2--2--2--3--5--8--2--2--2--3--2--2--2--
D -------------------0--0--0--1--0--0--0--0--0--1--3-3-3--0--0--0--1--0--0--0--0--0--1--3--6--0--0--0--1--0--0--0--

D -------------------------------------------
A -------------------------------------------
F ----------------------0--------0--------0--
C -2----3--5-5-5-----2--------1--------0-----
G -2----3--5-5-5--3--------2--------1--------
D -0----1--3-3-3-----------------------------

Riff 3

D -------------12   ----------------15   ----------------12   --------------------------------12   ----------------15   ----
A -------------15b17----------------18b20----------------15b17--------------------------------15b17----------------18b20----
F --------------------------------------------------------------------------------------------------------------------------
C --------------------------------------------------------------------------------------------------------------------------
G --------------------------------------------------------------------------------------------------------------------------
D -0--0-3--0------------0--0-3--0------------0--0-3--0------------0--0-3--2=======0--0-3--0------------0--0-3--0------------

D -------------12   --------------------------------------------
A -------------15b17--------------------------------------------
F --------------------------------------------------------------
C ------------------------------4--------------3--------------2-
G ------------------------------------------------------------2-
D -0--0-3--0------------0--0-3------------0-2------------0-1--0-

Riff 3A

D --------------------------------------------------------------------------------------------------------------------------
A -------------12   ----------------15   ----------------12   --------------------------------12   ----------------15   ----
F -------------14b16----------------17b19----------------14b16--------------------------------14b16----------------17b19----
C --------------------------------------------------------------------------------------------------------------------------
G --------------------------------------------------------------------------------------------------------------------------
D -0--0-3--0------------0--0-3--0------------0--0-3--0------------0--0-3--2=======0--0-3--0------------0--0-3--0------------

D --------------------------------------------------------------
A -------------12   --------------------------------------------
F -------------14b16--------------------------------------------
C ------------------------------4--------------3--------------2-
G ------------------------------4--------------3--------------2-
D -0--0-3--0------------0--0-3--2---------0-2--1---------0-1--0-

Fill 1

D -----------
A -----------
F -----------
C -8---8---8-
G -8---8---8-
D -6-0-6-0-6-

Riff 4

D ----------------------------------------------------------------------------------------
A ----------------------------------------------------------------------------------------
F ----------------------------------------------------------------------------------------
C ------3--------------------------2-------------------------3--------------------------2-
G ------3--------------------------2-------------------------3--------------------------2-
D -0-0--1---------------------0-1--0--------------------0-0--1---------------------0-1--0-

Riff 5

D -------------------------------------------------------------------------------------------------------------------
A -------------------------------------------------------------------------------------------------------------------
F -------------------------------------------------------------------------------------------------------------------
C -------------------------------------------------------------------------------------------------------------------
G -------------------------------------------------------------------------------------------------------------------
D -0-0-0-0-0-0-0---0-0-0-0--3---0-0-0-0-0-0-0---0-0-0-0--3---0-0-0-0-0-0-0---0-0-0-0--3---0-0-0-0-0-0-0---0-0-0-3----

Riff 6

D ---------------------------------------------------------------------------------------------------------------------
A ---------------------------------------------------------------------------------------------------------------------
F ------------------------------------------------------------------9-9-9-9-9------------------------------------------
C ------------------------------------------------------------------9-9-9-9-9------------------------------------------
G ------------------------------------------------------------------7-7-7-7-7------------------------------------------
D -2------------3----0------2----3----0--2------------3----0---------------------2------------3----0------2----3----0--

D -------------------------------------
A -------------------------------------
F -------------------------------------
C -------------------------------------
G -------------------------------------
D -5------------5----3------------5----

Riff 7

D --------------------------------------------------------------------------------------
A --------------------------------------------------------------------------------------
F --------------------------------------------------------------------------------------
C -2---------3----------2---------3----------2---------3----------2---------3----3------
G -2---------3----------2---------3----------2---------3----------2---------3----3------
D -0--0-0-0--1----------0--0-0-0--1----------0--0-0-0--1----------0--0-0-0--1-----------

Riff 7A

D ---------------------------------------------------------------------------- ---------
A ---------------------------------------------------------------------------- ---------
F ---------------------------------------------------------------------------- ---------
C -2---------3----------2---------3----------2---------3----------2---------3- --3------
G -2---------3----------2---------3----------2---------3----------2---------3- --3------
D -0--0-0-0--1----------0--0-0-0--1----------0--0-0-0--1----------0--0-0-0--1- ---------

Order

No guitar
Riff 1/1A x 1
No guitar
Riff 1/1A x 1
Riff 2 x 1
Riff 3/3A x 1
Fill 1 x 1
Riff 2 x 1
Riff 3/3A x 1
Riff 4 x 1
Riff 5 x 1
Riff 5A x 1
Riff 5 x 2
Riff 6 x 1
Riff 5 x 2
Riff 7 x 7
Riff 7A x 1



Important: The song above is NOT stored on the Chordie server. The original song is hosted at www.xguitar.com. Chordie works as a search engine and provides on-the-fly formatting. Chordie does not index songs against artists/composers will. To remove this song please click here.

This song is displayed as text-only. Transposing and tuning is only available for chordpro-songs.

Login - add to songbook

Rating click stars to rate

Layout
Accuracy

SHARE PAGE  




You need to log in to post comments