Guitar Tabs, Chords and Lyrics


Damned    Overkill



Damned By OVERKILL
From The Album Killbox 13
On Spitfire Records
                         [Palm Muted = *]
                         [Emphasise = E]
INTRO
Gtr.1
|-3---3---3---3-|
|-3---3---3---3-|
|-1---1---1---1-|
|-----------------|
|-----------------|
|--00--00--00--|Repeat Around 17 Times While Lead Plays Gtr.2
   **  **  **
Gtr.2
|-----------------------------------------------------------------------|
|-----------------------------------------------------------------------|
|-----------------------------------------------------------------------|
|---------------------------------------------------------------------1-|
|---------------------------------------------------------------------1-|
|-0-3-2-3-2-0-3-2-3-2-0-3-2-3-2-1111111-0-3-2-3-2-0-3-2-3-2-0-3-2-3-2-1-|

Main Riff Intro/Chorus
|------------------------------------------------------------|
|------------------------------------------------------------|
|------------------------------------------------------------|
|-2-----5/4/5/3--------------2/3--2-----5-4--1111111-|
|-2-----5/4/5/3--------------2/3--2-----5-4--1111111-|
|-0-00--3/2/3/1----000000----2/3--0-00--3-2--1111111-|
    **        E    ******           **
(Bass Solo)

Then guitar Comes in With This I Think??
Riff 3
|--------------------------------|
|--------------------------------|
|--------------------------------|
|--------------------------------|
|-4/5/4/5/4/5-2--2-5/4/5/4-|
|-2/3/2/3/2/3-4--4-3/2/3/2-|x2

Verse Riff
|-------------------------|
|-------------------------|
|----3------3----3------|
|----3------3----3-5/3-|
|----1------1----1-5/3-|
|-00---00----00----3/1-|
  **   **    **
(Then Riff 3 Again)
(Verse Riff)
(Chorus Riff)
And So On...

Riff 5
After Second Chorus (Pre-Solo Riff)
|-33-33-33-33-|
|-33-33-33-33-|
|-11-11-11-11-|
|-11-11-11-11-|
|-------------|
|-------------|Repeat This A Good Few Times

Rythm
Solo
(I Think?)
|-------------------------------|
|-------------------------------|
|-------------------------------|
|-1---11--------------1---11----|
|-1---11--------------1---11----|
|-1-0-11-00000000-----1-0-11----|x8
    *    ********       *

Thats It!
E-mail Me And tell Me If Its Good, Its my First Tab!
Enjoy!



Important: The song above is NOT stored on the Chordie server. The original song is hosted at www.xguitar.com. Chordie works as a search engine and provides on-the-fly formatting. Chordie does not index songs against artists'/composers' will. To remove this song please click here.

This song is displayed as text-only. Transposing and tuning is only available for chordpro-songs.

Login - add to songbook

Rating click stars to rate

Layout
Accuracy

SHARE PAGE  




You need to log in to post comments