Guitar Tabs, Chords and Lyrics


God-Like    Overkill



GOD-LIKE
                                 BY OVERKILL
                               FROM THE ALBUM
                              THE KILLING KIND

Tabbed by: Talal Daghestani, goldguitar@hotmail.com

Legend:
-------

h    hammer on
p    pull off
.    plam mute
~    vibrato
/    slide down
\    slide up


e|-----------------------------------------------------------|
B|-----------------------------------------------------------|
G|-----------------------3-2---------------------------------|
D|------2---3---5---3---2---3-------2---3---5---3----3-3-----|
A|---------------------------------------------------1-1-----|
E|-0-0----0---0---0------------0-0----0---0---0----0---------|
   . .    .   .   .            . .    .   .   .    .


e|-----------------------------------------------------------|
B|-----------------------------------------------------------|
G|-----------------------3-2---------------------------------|
D|------2---3---5---3---2---3-------2---3---5---3----3-3-----|
A|---------------------------------------------------1-1-----|
E|-0-0----0---0---0------------0-0----0---0---0----0---------|
   . .    .   .   .            . .    .   .   .    .


e|-----------------------------------------------------------|
B|-----------------------------------------------------------|
G|-----------------------3-2---------------------------------|
D|------2---3---5---3---2---3-------2---3---5---3----3-3-----|
A|---------------------------------------------------1-1-----|
E|-0-0----0---0---0------------0-0----0---0---0----0---------|
   . .    .   .   .            . .    .   .   .    .


e|-----------------------------------------------------------|
B|-----------------------------------------------------------|
G|-----------------------3-2---------------------------------|
D|------2---3---5---3---2---3-------2---3---5---3----3-3--3-3|
A|---------------------------------------------------1-1--1-1|
E|-0-0----0---0---0------------0-0----0---0---0----0---------|
   . .    .   .   .            . .    .   .   .    .


e|-----------------------------------------------------------|
B|-----------------------------------------------------------|
G|-----------------------------------------------------------|
D|--------3--------4--3-------------3-------4----------------|
A|--2-22--1----3---2--1--3----2-22--1----3--2----------------|
E|--0-00----0--1-0-------1----0-00----0--1------0000---------|
      ..    .    .              ..    .         ....


e|---------------------------------------------------------|
B|---------------------------------------------------------|
G|---------------------------------------------------------|
D|-------3-------4-3---------3-----------------------------|
A|--2-22-1---3---2-1-3--2-22-1---3-------------------------|
E|--0-00---0-1-0-----1--0-00---0-1-0-1-0-1-0-1-3-1-3-1-3-1-|
      ..   .   .          ..   .   . . . . . .   . . . .


e|-----------------------------------------------------------|
B|-----------------------------------------------------------|
G|-----------------------------------------------------------|
D|--------3--------4--3-------------3-------4----------------|
A|--2-22--1----3---2--1--3----2-22--1----3--2----------------|
E|--0-00----0--1-0-------1----0-00----0--1------0000---------|
      ..    .    .              ..    .         ....


e|---------------------------------------------------------|
B|---------------------------------------------------------|
G|---------------------------------------------------------|
D|-------3-------4-3---------3-----------------------------|
A|--2-22-1---3---2-1-3--2-22-1------33333333---------------|
E|--0-00---0-1-0-----1--0-00---0----11111111---------------|
      ..   .   .          ..   .     .......


e|-----------------------------------------------------------|
B|-----------------------------------------------------------|
G|-----------------------------------------------------------|
D|--------3--------4--3-------------3-------4----------------|
A|--2-22--1----3---2--1--3----2-22--1----3--2----------------|
E|--0-00----0--1-0-------1----0-00----0--1------0000---------|
      ..    .    .              ..    .         ....


e|---------------------------------------------------------|
B|---------------------------------------------------------|
G|---------------------------------------------------------|
D|-------3-------4-3---------3-----------------------------|
A|--2-22-1---3---2-1-3--2-22-1---3-------------------------|
E|--0-00---0-1-0-----1--0-00---0-1-0-1-0-1-0-1-3-1-3-1-3-1-|
      ..   .   .          ..   .   . . . . . .   . . . . .


E|-----------------------------------------------------------------------|
B|-----------------------------------------------------------------------|
G|-----------------------------------------------------------------------|
D|------2\3--5----2\3---------2\3--5--2\3-------5--4---------------------|
A|-2---------3---------5-----------3-------~~---3--2---------------------|
E|-0-00--------00------3---00--------------3-----------------------------|
     ..        ..          ..


E|-----------------------------------------------------------------------|
B|-----------------------------------------------------------------------|
G|-----------------------------------------------------------------------|
D|------2\3--5----2\3---------2\3--5--2\3-------5--4---------------------|
A|-2---------3---------5-----------3-------~~---3--2---------------------|
E|-0-00--------00------3---00--------------3-----------------------------|
     ..        ..          ..


e|-----------------------------------------------------------|
B|-----------------------------------------------------------|
G|-----------------------3-2---------------------------------|
D|------2---3---5---3---2---3-------2---3---5---3----3-3-----|
A|---------------------------------------------------1-1-----|
E|-0-0----0---0---0------------0-0----0---0---0----0---------|
   . .    .   .   .            . .    .   .   .    .


e|---------------------------------------------------------------|
B|---------------------------------------------------------------|
G|-----------------------3-2-------------------------------------|
D|------2---3---5---3---2---3-------2---3---5---3----3-3--3-3-3--|
A|---------------------------------------------------1-1--1-1-1-3|
E|-0-0----0---0---0------------0-0----0---0---0----0------------1|
   . .    .   .   .            . .    .   .   .    .


e|-----------------------------------------------------------|
B|-----------------------------------------------------------|
G|-----------------------------------------------------------|
D|--------3--------4--3-------------3-------4----------------|
A|--2-22--1----3---2--1--3----2-22--1----3--2----------------|
E|--0-00----0--1-0-------1----0-00----0--1------0000---------|
      ..    .    .              ..    .         ....


e|---------------------------------------------------------|
B|---------------------------------------------------------|
G|---------------------------------------------------------|
D|-------3-------4-3---------3-----------------------------|
A|--2-22-1---3---2-1-3--2-22-1------33333333---------------|
E|--0-00---0-1-0-----1--0-00---0----11111111---------------|
      ..   .   .          ..   .     .......


e|-----------------------------------------------------------|
B|-----------------------------------------------------------|
G|-----------------------------------------------------------|
D|--------3--------4--3-------------3-------4----------------|
A|--2-22--1----3---2--1--3----2-22--1----3--2----------------|
E|--0-00----0--1-0-------1----0-00----0--1------0000---------|
      ..    .    .              ..    .         ....


e|---------------------------------------------------------|
B|---------------------------------------------------------|
G|---------------------------------------------------------|
D|-------3-------4-3---------3-----------------------------|
A|--2-22-1---3---2-1-3--2-22-1---3-------------------------|
E|--0-00---0-1-0-----1--0-00---0-1-0-1-0-1-0-1-3-1-3-1-3-1-|
      ..   .   .          ..   .   . . . . . .   . . . . .


E|-----------------------------------------------------------------------|
B|-----------------------------------------------------------------------|
G|-----------------------------------------------------------------------|
D|------2\3--5----2\3---------2\3--5--2\3-------5--4---------------------|
A|-2---------3---------5-----------3-------~~---3--2---------------------|
E|-0-00--------00------3---00--------------3-----------------------------|
     ..        ..          ..


E|-----------------------------------------------------------------------|
B|-----------------------------------------------------------------------|
G|-----------------------------------------------------------------------|
D|------2\3--5----2\3---------2\3--5--2\3-------5--4---------------------|
A|-2---------3---------5-----------3-------~~---3--2---------------------|
E|-0-00--------00------3---00--------------3-----------------------------|
     ..        ..          ..



rhythem under solo
e|----------------------------------------------------------------------|
B|----------------------------------------------------------------------|
G|----------------------------------------------------------------------|
D|----------------------------------------------------------------------|
A|--2-444444444444444--2-444444444444444--2-8-7---5-5--2-8-7---5-5------|
E|--0-222222222222222--0-222222222222222--0-6-5-0-3-3--0-6-5-0-3-3------|
       ..............     ..............        .            .


e|-----------------------------------------------------------------------|
B|-----------------------------------------------------------------------|
G|-----------------------------------------------------------------------|
D|-----------------------------------------------------------------------|
A|--2-444444444444444--2-444444444444444--2-8-7----5-5--2-8-7---5-5------|
E|--0-222222222222222--0-222222222222222--0-6-5-00-3-3--0-6-5-0-3-3------|
       ..............     ..............        ..            .


e|----------------------------------------------------------------------|
B|----------------------------------------------------------------------|
G|----------------------------------------------------------------------|
D|----------------------------------------------------------------------|
A|--2-444444444444444--2-444444444444444--2-8-7---5-5--2-8-7---5-5------|
E|--0-222222222222222--0-222222222222222--0-6-5-0-3-3--0-6-5-0-3-3------|
       ..............     ..............        .            .


e|-----------------------------------------------------------------------|
B|-----------------------------------------------------------------------|
G|-----------------------------------------------------------------------|
D|-----------------------------------------------------------------------|
A|--2-444444444444444--2-444444444444444--2-8-7----5-5--2-8-7---5-5------|
E|--0-222222222222222--0-222222222222222--0-6-5-00-3-3--0-6-5-0-3-3------|
       ..............     ..............        ..            .


e|-----------------------------------------------------------------------|
B|-----------------------------------------------------------------------|
G|-----------------------------------------------------------------------|
D|-----------------------------------------------------------------------|
A|--2-444444444444444--2-444444444444444--2-8-7----5-5--2-8-7---5-5------|
E|--0-222222222222222--0-222222222222222--0-6-5-00-3-3--0-6-5-0-3-3------|
       ..............     ..............        ..            .


e|--------------------------------------------------------------|
B|--------------------------------------------------------------|
G|--------------------------------------------------------------|
D|-----5--55-55------8-4--54-54------5--55-55-------------------|
A|-2-5-3--33-33--5-2-6-2--32-32--2-5-3--33-33--5-2--------------|
E|-0-3-----------3-0-------------0-3-----------3-0--------------|
          .. ..           .. ..         .. ..


e|----------------------------------------------------------------------|
B|----------------------------------------------------------------------|
G|----------------------------------------------------------------------|
D|--4-4444444444444--3-33333333333333-2-22222222222222-2----------------|
A|--2-22222222222222-1-11111111111111-0-00000000000000-0-3--------------|
E|-------------------------------------------------------1--------------|
      ..............   ..............   ..............



e|-----------------------------------------------------------|
B|-----------------------------------------------------------|
G|-----------------------------------------------------------|
D|--------3--------4--3-------------3-------4----------------|
A|--2-22--1----3---2--1--3----2-22--1----3--2----------------|
E|--0-00----0--1-0-------1----0-00----0--1------0000---------|
      ..    .    .              ..    .         ....


e|---------------------------------------------------------|
B|---------------------------------------------------------|
G|---------------------------------------------------------|
D|-------3-------4-3---------3-----------------------------|
A|--2-22-1---3---2-1-3--2-22-1------33333333---------------|
E|--0-00---0-1-0-----1--0-00---0----11111111---------------|
      ..   .   .          ..   .     .......


e|-----------------------------------------------------------|
B|-----------------------------------------------------------|
G|-----------------------------------------------------------|
D|--------3--------4--3-------------3-------4----------------|
A|--2-22--1----3---2--1--3----2-22--1----3--2----------------|
E|--0-00----0--1-0-------1----0-00----0--1------0000---------|
      ..    .    .              ..    .         ....


e|---------------------------------------------------------|
B|---------------------------------------------------------|
G|---------------------------------------------------------|
D|-------3-------4-3---------3-----------------------------|
A|--2-22-1---3---2-1-3--2-22-1---3-------------------------|
E|--0-00---0-1-0-----1--0-00---0-1-0-1-0-1-0-1-3-1-3-1-3-1-|
      ..   .   .          ..   .   . . . . . .   . . . . .


e|-----------------------------------------------------------|
B|-----------------------------------------------------------|
G|-----------------------------------------------------------|
D|--------3--------4--3-------------3-------4----------------|
A|--2-22--1----3---2--1--3----2-22--1----3--2----------------|
E|--0-00----0--1-0-------1----0-00----0--1------0000---------|
      ..    .    .              ..    .         ....


e|---------------------------------------------------------|
B|---------------------------------------------------------|
G|---------------------------------------------------------|
D|-------3-------4-3---------3-----------------------------|
A|--2-22-1---3---2-1-3--2-22-1------33333333---------------|
E|--0-00---0-1-0-----1--0-00---0----11111111---------------|
      ..   .   .          ..   .     .......


e|-----------------------------------------------------------|
B|-----------------------------------------------------------|
G|-----------------------------------------------------------|
D|--------3--------4--3-------------3-------4----------------|
A|--2-22--1----3---2--1--3----2-22--1----3--2----------------|
E|--0-00----0--1-0-------1----0-00----0--1------0000---------|
      ..    .    .              ..    .         ....


e|---------------------------------------------------------|
B|---------------------------------------------------------|
G|---------------------------------------------------------|
D|-------3-------4-3---------3-----------------------------|
A|--2-22-1---3---2-1-3--2-22-1---3-------------------------|
E|--0-00---0-1-0-----1--0-00---0-1-0-1-0-1-0-1-3-1-3-1-3-1-|
      ..   .   .          ..   .   . . . . . .   . . . . .


E|------------------------------------------------------------------------|
B|------------------------------------------------------------------------|
G|------------------------------------------------------------------------|
D|-------2\3--5----2\3---------2\3--5--2\3-------5--4---------------------|
A|-22---------3---------5-----------3-------~~---3--2---------------------|
E|-00-----------00------3---00--------------3-----------------------------|
                ..          ..


E|-----------------------------------------------------------------------|
B|-----------------------------------------------------------------------|
G|-----------------------------------------------------------------------|
D|------2\3--5----2\3---------2\3--5--2\3-------5--4---------------------|
A|-2---------3---------5-----------3-------~~---3--2--22-----------------|
E|-0-00--------00------3---00--------------3----------00-----------------|
     ..        ..          ..


e|-----------------------------------------------------------|
B|-----------------------------------------------------------|
G|-----------------------3-2---------------------------------|
D|------2---3---5---3---2---3-------2---3---5---3----3-3-----|
A|---------------------------------------------------1-1-----|
E|-0-0----0---0---0------------0-0----0---0---0----0---------|
   . .    .   .   .            . .    .   .   .    .


e|-----------------------------------------------------------|
B|-----------------------------------------------------------|
G|-----------------------3-2---------------------------------|
D|------2---3---5---3---2---3-------2---3---5---3----3-3-----|
A|---------------------------------------------------1-1-----|
E|-0-0----0---0---0------------0-0----0---0---0----0---------|
   . .    .   .   .            . .    .   .   .    .


e|-----------------------------------------------------------|
B|-----------------------------------------------------------|
G|-----------------------3-2---------------------------------|
D|------2---3---5---3---2---3-------2---3---5---3----3-3-----|
A|---------------------------------------------------1-1-----|
E|-0-0----0---0---0------------0-0----0---0---0----0---------|
   . .    .   .   .            . .    .   .   .    .


e|-----------------------------------------------------------|
B|-----------------------------------------------------------|
G|-----------------------3-2---------------------------------|
D|------2---3---5---3---2---3-------2---3---5---3----3-3-----|
A|---------------------------------------------------1-1-----|
E|-0-0----0---0---0------------0-0----0---0---0----0---------|
   . .    .   .   .            . .    .   .   .    .


e|-----------------------------------------------------------|
B|-----------------------------------------------------------|
G|-----------------------------------------------------------|
D|--3-3------------------------------------------------------|
A|--1-1--3-3--2-2--------------------------------------------|
E|-------1-1--0-0--------------------------------------------|



If anyone has the solo for this song or any tab for OVERKILL please
email me at :  goldguitar@hotmail.com


Important: The song above is NOT stored on the Chordie server. The original song is hosted at www.xguitar.com. Chordie works as a search engine and provides on-the-fly formatting. Chordie does not index songs against artists/composers will. To remove this song please click here.

This song is displayed as text-only. Transposing and tuning is only available for chordpro-songs.

Login - add to songbook

Rating click stars to rate

Layout
Accuracy

SHARE PAGE  




You need to log in to post comments