Chordie logo

Powersurge    Overkill



Powersurge
Overkill
Guitar



E||----------------------------------|---------------------------|------------------------------|
B||----------------------------------|---------------------------|------------------------------|
G||----------------------------------|---------------------------|------------------------------|
D||----------5--4--------7--6--------|---------------------------|------------------------------|
A||----------3--2--6--5--5--4--7--6--|--10--8--7--8--8--7--5--7--|------------------------------|
E||--0-0-0-0-------4--3--------5--4--|--8---6--5--6--6--5--3--5--|--0-0-0-0-6--5--0-0-0-0-6--5--|


------------------------------|------------------------------|--------------------------|
------------------------------|------------------------------|--------------------------|
------------------------------|------------------------------|--------------------------|
------------------------------|------------------------------|--------------------------|
------------------------------|------------------------------|--6--5--------5-----------|
--0-0-0-0-6--5--0-0-0-0-3--5--|--0-0-0-0-6--5--0-0-0-0-6--5--|--------6--5-----8--6--8--|


-------------------|--------------------|-----12~-------------|------------------|
-------------------|--------------------|---------------------|------------------|
-------------------|--------------------|---------------------|------------------|
-------------------|--------------------|---------------------|------------------|
--2----------------|--2--------------2--|--2------------------|------------------|
--0----------------|--0--------------0--|--0------------------|------------------|


|-------------------------------|------------------------------|------------------------------|
|-------------------------------|------------------------------|------------------------------|
|*------------------------------|------------------------------|------------------------------|
|*------------------------------|------------------------------|------------------------------|
|-----------8--7----------8--7--|----------8--7----------5--7--|----------8--7----------8--7--|
|---0-0-0-0-6--5--0-0-0-0-6--5--|--0-0-0-0-6--5--0-0-0-0-3--5--|--0-0-0-0-6--5--0-0-0-0-6--5--|


-----------------------------||--------------------------------|-------------------------------|
-----------------------------||--------------------------------|-------------------------------|
----------------------------*||*-------------------------------|-------------------------------|
--8--7--------7-------------*||*--9----------------------------|--7----------------------------|
--6--5--8--7--5--10--8--10---||---7----------------------------|--5----------------------------|
--------6--5-----8---6--8----||---0----0-0-0-0-0-0-0-0-0-0-0-0-|-------0-0-0-0-0-0-0-0-0-0-0-0-|


-------------------------------|----------------------------||---------------------------|
-------------------------------|----------------------------||---------------------------|
-------------------------------|---------------------------*||*--------------------------|
--6----------------------------|--5------------------------*||*--------------------------|
--4----------------------------|--3------------3--2---------||---2--------8--------7-----|
-------0-0-0-0-0-0-0-0-0-0-0-0-|-------0-0-0-0-------3--2---||---0--0--0--6--0--0--5--0--|


-------------------------|--------------------------|---------------------------||
-------------------------|--------------------------|---------------------------||
-------------------------|--------------------------|--------------------------*||
-------------------------|--------------------------|--------------------------*||
-----8--------7----------|--2--------8--------7-----|-----8---------------------||
--0--6--0--0--5--0--3----|--0--0--0--6--0--0--5--0--|--0--6--0--0--8--6--5--6---||

|------------------------|-------------------------------|
|------------------------|---------------------------14--|
|------------------------|-------------------------------|
|--12r-----------12---12-|---0-12-0-12-0-12-0------------|
|------------------------|--------------------0----------|
|------------------------|-------------------------------|


---------------------------------------------------|-------------------------------|
--------------------------11--------------------13h|--17---------13--13--13-13-13\\-|
---------13-15p12-------0----10-----------14p13----|-------------------------------|
--14/-15----------13h15---------10h14p10-----------|-------------------------------|
---------------------------------------------------|-------------------------------|
---------------------------------------------------|-------------------------------|


-------------------------------------------------|------------17------14--12-12h13-|
---13h15h17p13h17p13h15----16--------------------|--14---17------------------------|
------------------------14----16--12h16p12h16p13-|---------------------------------|
-------------------------------------------------|---------------------------------|
-------------------------------------------------|---------------------------------|
-------------------------------------------------|---------------------------------|


--15-15-13--13-15--------------------------------------------|
------------------12-15-13-12--------------------------------|
------------------------------12-16p14p12-14-14-12h14p12-----|
---------------------------------------------------------14--|
-------------------------------------------------------------|
-------------------------------------------------------------|


------------------------------------------|--20b---20b---17h20p17----17h20---------|
------------------------------------------|-----------------------20-------20b--17h|
------------------------------------------|----------------------------------------|
--12-12-14-12-----------------------0-----|----------------------------------------|
--------------14-12-14-12-----------------|----------------------------------------|
--------------------------14-14-12b-------|----------------------------------------|


--------------------------------------------|

--20p17-19p17h19p17-17----------------------|
-----------------------19b------------------|
--------------------------------------20----|
--------------------------------22-22----22-|
--------------------------------------------|


------------------19-----------------------------------------------|
---------------------20----------20-20--------------------18-20-19-|
------------------------19-18-18--------20-20-20-20-18-------------|
--20-21-22-20------------------------------------------20----------|
--------------22---------------------------------------------------|
-------------------------------------------------------------------|


-----------------------20----20--20r-20b-----|---------------------------|
--20-18-------------18-----------------------|--20b-20b-20\\--------------|
--------20h22-20-20-------20-----------------|----------------7b-7b-7\\---|
---------------------------------------------|---------------------------|
---------------------------------------------|---------------------------|
---------------------------------------------|---------------------------|


--20b-20b-20\\--------------|--------------------------|----------------------------|
---------------------------|--------------------------|----------------------------|
----------------5----------|--------------------------|----------------------------|
------------------7b7b-----|--------------------------|----------------------------|
---------------------------|--5--7--8--7--5-----------|----------------------------|
---------------------------|-----------------8--7--5--|--7--8--7--5-5-8--7--5\\3-2b-|


-------------------||
-------------------||
-------------------||
-------------------||
-------------------||


Important: The song above is NOT stored on the Chordie server. The original song is hosted at www.xguitar.com. Chordie works as a search engine and provides on-the-fly formatting. Chordie does not index songs against artists/composers will. To remove this song please click here.

This song is displayed as text-only. Transposing and tuning is only available for chordpro-songs.

Login - add to songbook

Rating click stars to rate

Layout
Accuracy

SHARE PAGE  

You need to log in to post comments