Chordie logo

Drunken Wisdom    Overkill



Drunken Wisdom

performed by OVERKILL

taken from the album "Under the influence"
redhurley182@hotmail.com
Dustin Ruther- i'd Like to dedicate this tab to another overkill fan who emailed me and well here she is!!!!-------------  Metal On!!!!!!!!!

E||------------0--0h1p0--------|-----------0--0h1p0--------|--------------3-----------|
B||---------3------------3-----|--------3------------3-----|-----------3-----3--------|
G||*-----2------------------2--|-----2------------------2--|--------0-----------0-----|
D||*--0------------------------|--0------------------------|-----0-----------------0--|
A||----------------------------|---------------------------|--1-----------------------|
D||----------------------------|---------------------------|--------------------------|

--------------0-1-0---------||--------------0-----------|--3--------2--------------|
-----------2----------------||-----------1-----1--------|-----1--------1-----------|
--------0------------2-----*||--------2-----------2-----|--------2--------2-----2--|
-----2------------------0--*||-----2-----------------2--|--------------------2-----|
--0-------------------------||--0-----------------------|--------------------------|
----------------------------||--------------------------|--------------------------|

--------------0-----------|--3--------2---------------|--------------0-----------|
-----------1-----1--------|-----1--------1------------|-----------1-----1--------|
--------2-----------2-----|--------2--------2--0h2p0--|--------2-----------2-----|
-----2-----------------2--|---------------------------|-----2-----------------2--|
--0-----------------------|---------------------------|--0-----------------------|
--------------------------|---------------------------|--------------------------|

--3--------2--------------|--------------0-----------|
-----1--------1-----------|-----------1-----1--------|
--------2--------2-----2--|--------2-----------2-----|
--------------------2-----|-----2-----------------2--|
--------------------------|--0-----------------------|
--------------------------|--------------------------|

--------------------------------------------------------||------------5--8p-5--------|
--------3--5--------------7--8---------7---8----10------||---------6-----------6-----|
-----4--------6--------8--------9------8---9----11------||*-----7-----------------7--|
--5--------------7--9--------------10--9---10---12------||*--0-----------------------|
--------------------------------------------------------||---------------------------|
--------------------------------------------------------||---------------------------|

--------1--------1--------1--------1--|-----------5--8p-5--------|
-----3--------3--------3--------3-----|--------6-----------6-----|
--3--------0--------2-----------------|-----7-----------------7--|
-----------------------------3--------|--0-----------------------|
--------------------------------------|--------------------------|
--------------------------------------|--------------------------|

--------1--------1--------1--------1---------------||--------0-------------|--------5-------------|
-----3--------3--------3--------3------------------||------6---------------|------6---------------|
--3--------0--------2-----------------3--2--0-----*||----7-----------------|----7-----------------|
-----------------------------3-----------------3--*||--0-------------------|--0-------------------|
---------------------------------------------------||----------------------|----------------------|
---------------------------------------------------||----------------------|----------------------|

--------8-------------|--------10-------------|--------------------|--------------------|
------6---------------|------6----------------|--------------------|--------------------|
----7-----------------|----7------------------|--------------------|--------------------|
--0-------------------|--0--------------------|--12----------------|--------------------|
----------------------|-----------------------|--------------------|--12----------------|
----------------------|-----------------------|--------------------|--------------------|

--------------------|-------------------||
--------------------|-------------------||
--------------------|-------------------||
------12------------|--0----------------||

------12------------|--0----------------||


Important: The song above is NOT stored on the Chordie server. The original song is hosted at www.xguitar.com. Chordie works as a search engine and provides on-the-fly formatting. Chordie does not index songs against artists/composers will. To remove this song please click here.

This song is displayed as text-only. Transposing and tuning is only available for chordpro-songs.

Login - add to songbook

Rating click stars to rate

Layout
Accuracy

SHARE PAGE  



You need to log in to post comments