Chordie logo


Mad Gone World    Overkill



Author/Artist: Overkill
Title: Mad Gone World
Album: Under The Influence
Transcribed by: Jan Werthwein
Email: yawn40@hotmail.com

Great song, but hard to find tabs for. Anyway,
its all here to the best of my knowledge, except for
the solo.  As usual, I left the timing up to you.

------------------------------------------------------------------------------
------------------------------------------------------------------------------
------------------------------------------------------------------------------
-2-------------------------2-------------------2------------------------------
-2-------8\7---8\7---5/7---2------------5------2----8\7---8\7---5/7---8-----5-
-0-------6\5---6\5---3/5---0-------0-0--3------0----6\5---6\5---3/5---6-----3-


------------------------------------------------------------------------------
------------------------------------------------------------------------------
------------------------------------------------------------------------------
------------------------------------------------------------------------------
---------------------------7-7-7-7-7-7------7----7-7-7-7-7-7-7-7-7-7-7-7-7-7--
-0-0-0-0-0-0-0-0-0-0-0-0-0--------------7h8-----------------------------------
 p.m.--------------------------------|           p.m.------------------------

------------------------------------------------------------------------------
------------------------------------------------------------------------------
------------------------------------------------------------------------------
-------3----------------------------------------------------------------------
-7-7------5--3--5--3--5-------------------------------------------------------
-----0------------------------------------------------------------------------
 ----|

riff fig. 1
------------------------------------------------------------------------------
------------------------------------------------------------------------------
------------------------------------------------------------------------------
-------3-----------------------------3----------------9/10--------------------
----------5--3--5-------3--5------------5--3--5-------7/8---------------------
-0--0----------------0---------0--0---------------0---------------------------
 p.m                p.m        p.m               p.m

------------------------------------------------------------------------------
------------------------------------------------------------------------------
------------------------------------------------------------------------------
-------3-----------------------------3----------------4/5---------------------
----------5--3--5-------3--5------------5--3--5-------2/3---------------------
-0--0----------------0---------0--0---------------0---------------------------
 p.m.               p.m.       p.m.              p.m.

play first part of riff again then..

------------------------------------------------------------------------------
------------------------------------------------------------------------------
------------------------------------------------------------------------------
-------3-----------------------------3----------------------------------------
----------5--3--5------3--5-------------5--3--5------9/10\8-------------------
-0--0---------------0----------0--0---------------0--7/8-\6-------------------
 p.m.              p.m.        p.m.              p.m.

play first part again, then....

------------------------------------------------------------------------------
------------------------------------------------------------------------------
------------------------------------------------------------------------------
-------3-----------------------------3-----------3-----------3--------------5-
----------5--3--5------3--5-------------5--3--5-----5--3--5-----5--3--5-----3-
-0--0---------------0----------0--0-------------------------------------------
 p.m.              p.m.        p.m.

riff fig. 2

------------------------------------------------------------------------------
------------------------------------------------------------------------------
------------------------------------------------------------------------------
---------------------9/10-----------------------7-----------------------9/10--
---------------------7/8------------------------5-----------------------7/8---
-0--0--0-0-0-0--0-0--------0--0--0-0-0-0--0-0-------0--0--0-0-0-0--0-0--------
 p.m.-------------|        p.m.-------------|       p.m.-------------|

------------------------------------------------------------------------------
------------------------------------------------------------------------------
------------------------------------------------------------------------------
-5--8--5--7-----5-----------------8-------------------------------------------
-------------8-----7--8----8h-10----------------------------------------------
------------------------------------------------------------------------------

play rhythm fig. 1, and end with this

------------------------------------------------------------------------------
------------------------------------------------------------------------------
------------------------------------------------------------------------------
-3------------3------------3-------------3---5--------------------------------
----5--3--5------5--3--5------5--3--5----1---3--------------------------------
------------------------------------------------------------------------------

 verse again followed by chorus "save me from this mad gone world....."

------------------------------------------------------------------------------
------------------------------------------------------------------------------
------------------------------------------------------------------------------
-8-7-8-7--------7-8-7-8-7--------7-8-7-8-7--------7---------------------------
---------7-8-10-----------7-8-10-----------7-8-10----------10-------8---------
-----------------------------------------------------0--0--8--0--0--6---------
 slight p.m.--------------------------------------|  p.m.     p.m.

------------------------------------------------------------------------------
------------------------------------------------------------------------------
------------------------------------------------------------------------------
-8-7-8-7--------7-8-7-8-7--------7-8-7-8-7--------7-----------------9----10---
---------7-8-10-----------7-8-10-----------7-8-10-------10----12----7----8----
-----------------------------------------------------0--8--0--10--0----0------
 slight p.m. -------------------------------------|

------------------------------------------------------------------------------
------------------------------------------------------------------------------
------------------------------------------------------------------------------
---------8--------------------------------------------------------------------
-8-h-10-----------------------------------------------------------------------
------------------------------------------------------------------------------
 play chorus twice then:

------------------------------------------------------------------------------
------------------------------------------------------------------------------
------------------------------------------------------------------------------
-9-----7-----5----------------12-----11----10---------------------------------
-7-----5-----3--------------12-----11----10---9/10\9--------------------------
--------------------------10------9-----8-----7/8-\7--------------------------
                          p.m.--------------|
super heavy riff!

------------------------------------------------------------------------------
------------------------------------------------------------------------------
------------------------------------------------------------------------------
-3-------4--------5-----3---4---5----3--------4--------5----------------------
-1-------2--------3-----1---2---3----1--------2--------3--2--2--2--2--2--2--2-
---0--0-----0--0-----0-------------0----0--0-----0--0-----0--0--0--0--0--0--0-
   p.m.     p.m.    p.m.          p.m.  p.m.     p.m.     heavy p.m.---------

------------------------------------------------------------------------------
------------------------------------------------------------------------------
------------------------------------------------------------------------------
------------------------------------------------------------------------------
-2----------------------------------------------------------------------------
-0----------------------------------------------------------------------------
 |
riff fig. 3

------------------------------------------------------------------------------
------------------------------------------------------------------------------
------------------------------------------------------------------------------
------------------------------------------------------------------------------
-------7-----7h-8--------8--7---------7---------------------------------------
-0--0-----0--------0--0--------10--8-----10--7-h8-----------------------------
 p.m.    p.m.      p.m.

------------------------------------------------------------------------------
------------------------------------------------------------------------------
------------------------------------------------------------------------------
---------------------------------------------10--9----------------------------
-------7-----7h-8--------8--7---------10--7-----------------------------------
-0--0-----0--------0--0--------10--8------------------------------------------
 p.m.    p.m.      p.m.

riff 3. Changes to this

------------------------------------------------------------------------------
------------------------------------------------------------------------------
------------------------------------------------------------------------------
-------9-----9/-10-------------9-----9/-10-------------9----9/-10-------------
-------7-----7/-8--------------7-----7/-8--------------7----7/-8--------------
-0--0-----0--------0--0--0--0-----0--------0--0--0--0-----0-------------------

 end riff with this|                    or this |

---------------------------------|--------------------------------------------
---------------------------------|--------------------------------------------
---------------------------------|---------------12\11------------------------
---------------------------------|10\9---12\11---10\9---12\11--9/10---7/9-----
-------8--7---------7------------|8-\7---10\9-----------10\9---7/8----5/7-----
-0--0--------10--8-----10--7--8--|--------------------------------------------


slashes

------------------------------------------------------------------------------
------------------------------------------------------------------------------
-----------------------------------------10-----------------------------------
-------------------------9----10---12----8------------------------------------
--8------9-------10------7----8----10---------9-/10\9-------------------------
--6------7-------8----------------------------7/-8-\7-------------------------

 play riff 3 under solo halfway change to:

------------------------------------------------------------------------------
------------------------------------------------------------------------------
------------------------------------------------------------------------------
------------------------------------------------------------------------------
--2-/-4----------7-/-8----------2-/-4-------8--8--8---------------------------
--0-/-2---0--0---5-/-6---0--0---0-/-2---0---6--6--6---------------------------
          p.m.           p.m.           p.m.

play chorus riff again
-then rhythm fig. 1, finish with:

------------------------------------------------------------------------------
------------------------------------------------------------------------------
------------------------------------------------------------------------------
-------2----------------------2-------------2---------------------------------
-8-\7--2-----8\7---8\7---5/7--2-------5-----2------8\7---8\7---5/7---8--------
-6-\5--0-----6\5---6\5---3/5--0-------3-----0------6\5---6\5---3/5---6--------


------------------------------------------------------------------------------
------------------------------------------------------------------------------
------------------------------------------------------------------------------
-------10---------9--------7----------5-----------------5-\-------------------
-------8----------7--------5----------3-----------------5-\-------------------
-0--0-------0--0-----0--0-------0--0--------------------3-\-------------------


Important: The song above is NOT stored on the Chordie server. The original song is hosted at www.xguitar.com. Chordie works as a search engine and provides on-the-fly formatting. Chordie does not index songs against artists/composers will. To remove this song please click here.

This song is displayed as text-only. Transposing and tuning is only available for chordpro-songs.

Login - add to songbook

Rating click stars to rate

Layout
Accuracy

SHARE PAGE  




You need to log in to post comments