Guitar Tabs, Chords and Lyrics


Gasoline Dream    Overkill



OVERKILL - GASOLINE DREAM
(W.F.O., 1994)

Key
= after note = vibrato
^ after note = heavy vibrato
\\ = slide down
/ = slide up
+ = tap
h = hammer
p = pull
n = natural harmonic
s = pinching harmonic (squeal)
* = tremolo pick
t = trill
b = bend
|-3-| = triplet

n number above the tab = play the first part then the first finishing part
			 play the first part a second time and then play the second finishing part
			 etc.

Riff 1

E --------------------------------------------------------------------------------------------------------
B --------------------------------------------------------------------------------------------------------
G -9\\-------7-7-7--9--9-10-7--9\\-------7-7-7--9--9-10-7---------------------------------------------------
D -9\\-------7-7-7--9--9-10-7--9\\-------7-7-7--9--9-10-7--8-------8-8-8--10--8--7--8--------------------9--
A -7\\-------5-5-5--7--7-8 -5--7\\-------5-5-5--7--7-8 -5--8-------8-8-8--10--8--7--8--------------------9--
E -------0--------------------------0--------------------6----0--6-6-6--8 --6--5--6----0--5h6-5-3------7--

E --------------------------------------------------------------------------------------------------------
B --------------------------------------------------------------------------------------------------------
G -9\\-------7-7-7--9--9-10-7--9\\-------7-7-7--9--9-10-7---------------------------------------------------
D -9\\-------7-7-7--9--9-10-7--9\\-------7-7-7--9--9-10-7--8-------8-8-8--10--8--7--8--------------------3--
A -7\\-------5-5-5--7--7-8 -5--7\\-------5-5-5--7--7-8 -5--8-------8-8-8--10--8--7--8--------------------3--
E -------0--------------------------0--------------------6----0--6-6-6--8 --6--5--6----0--5h6-5-3------1--

Riff 2

E ----------------------------------------------------------------------
B ----------------------------------------------------------------------
G ----------------------------------------------------------------------
D -2----------------3----------------4----------------5-----------------
A -2----------------3----------------4----------------5----5--4--3------
E -0----------------1----------------2----------------3-------------3-2-

Riff 2A

E -------------------------------------------------------------------------------------------
B -------------------------------------------------------------------------------------------
G -------------------------------------------------------------------------------------------
D -------0--2----0----2--------0--2----0----2--------0--2----0----2--------0-----------------
A ----2---------------------0---------------------0---------------------2-------5--4--3------
E -0---------------------1---------------------2---------------------3-------3-----------3-2-

Riff 3

E -------------------------------------------------
B -------------------------------------------------
G -------------------------------------------------
D -2--2--2--2--2--2--2--2--2--2--2--2--2--2--2--2--
A -2--2--2--2--2--2--2--2--2--2--2--2--2--2--2--2--
E -0--0--0--0--0--0--0--0--0--0--0--0--0--0--0--0--

Riff 4

E ----------------------------------------------------------------------------------------------------------------
B ----------------------------------------------------------------------------------------------------------------
G -----------4-5--------------------------4-5--------------------------4-5-----------------------------7-9-----7--
D -2---------4-5-----4-5-----3-4-2--------4-5-----4-5-----3-4-3--------4-5----4-5-----3-4-2------------7-9-----7--
A -2---------2-3-----4-5-----3-4-2--------2-3-----4-5-----3-4-3--------2-3----4-5-----3-4-2------------5-7-----5--
E -0----0-0------0-0-2-3-0-0-1-2-0----0-0-----0-0-2-3-0-0-1-2-1----1-1----1-1-2-3-1-1-1-2-0--------0-0-----0-0----

Riff 4A

E ----------------------------------------------------------------------------------------------------------------
B ----------------------------------------------------------------------------------------------------------------
G -----------4-5--------------------------4-5--------------------------4-5-----------------------------7-9-----7--
D -2---------4-5-----4-5-----3-4-2--------4-5-----4-5-----3-4-3--------4-5----4-5-----3-4-2------------7-9-----7--
A -2---------2-3-----4-5-----3-4-2--------2-3-----4-5-----3-4-3--------2-3----4-5-----3-4-2------------5-7-----5--
E -0----0-0------0-0-2-3-0-0-1-2-0----0-0-----0-0-2-3-0-0-1-2-1----1-1----1-1-2-3-1-1-1-2-0--------0-0-----0-0----

E ----------------
B ----------------
G --------------5-
D ------4-------5-
A ------4-------3-
E -00-0-2--00-0---

Riff 4B

E -------------------------------------------------------------------------------------------------
B --------------------------------------------------------------------------------------------------
G -------------4-5-----------------------------4-5-----------------------------4-5-----------------
D -2-----------4-5-----4-5-----3-4-------------4-5-----4-5-----3-4-------------4-5-----4-5-----3-4-
A -2-----------2-3-----4-5-----3-4-------------2-3-----4-5-----3-4-------------2-3-----4-5-----3-4-
E -0-0-0-0-0-0-----0-0-2-3-0-0-1-2-0-0-0-0-0-0-----0-0-2-3-0-0-1-2-1-1-1-1-1-1-----1-1-2-3-1-1-1-2-

Riff 4C

E -------------------------------------------------------------------------------------------------------------------------
B -------------------------------------------------------------------------------------------------------------------------
G -------------4-5-----------------------------4-5-----------------------------4-5------------------------------7-9-----7--
D -2-----------4-5-----4-5-----3-4-------------4-5-----4-5-----3-4-------------4-5-----4-5-----3-4-2------------7-9-----7--
A -2-----------2-3-----4-5-----3-4-------------2-3-----4-5-----3-4-------------2-3-----4-5-----3-4-2------------5-7-----5--
E -0-0-0-0-0-0-----0-0-2-3-0-0-1-2-0-0-0-0-0-0-----0-0-2-3-0-0-1-2-1-1-1-1-1-1-----1-1-2-3-1-1-1-2-0--------0-0-----0-0----

E ----------------
B ----------------
G --------------5-
D ------4-------5-
A ------4-------3-
E -00-0-2--00-0---

Fill 1

E ---------------------------------
B ---------------------------------
G ---------------------------------
D ---------------------------------
A ---------------------------------
E -0-0-0-0-0-0-0-0-0-0-0-0-0-0-0-0-

Riff 4B

E ----------------------------------------------------------------------------------------
B ----------------------------------------------------------------------------------------
G -----------4-5--------------------------4-5--------------------------4-5----------------
D -2---------4-5-----4-5-----3-4-2--------4-5-----4-5-----3-4-3--------4-5----4-5-----3-4-
A -2---------2-3-----4-5-----3-4-2--------2-3-----4-5-----3-4-3--------2-3----4-5-----3-4-
E -0----0-0------0-0-2-3-0-0-1-2-0----0-0-----0-0-2-3-0-0-1-2-1----1-1----1-1-2-3-1-1-1-2-

Riff 5

E ----------------------------------------------------------------------------------------------
B ----------------------------------------------------------------------------------------------
G ----------------------------------------------------------------------------------------------
D -------------2-2--2--2--2--2--2-------------2-2--2--2--2--2--2-------------2-2--2--2--2--2--2-
A -------------2-2--2--2--2--2--2-------------2-2--2--2--2--2--2-------------2-2--2--2--2--2--2-
E -00-00-00-00-0-0--0--0--0--0--0-00-00-00-00-0-0--0--0--0--0--0-00-00-00-00-0-0--0--0--0--0--0-

E ---------------------------------
B ---------------------------------
G ---------------------------------
D -------------3-3--5--5--5--------
A -------------3-3--5--5--5--------
E -11-11-11-11-1-1--3--3--3-4-3-1==

Riff 6

E ----------------------------------------------------------------------------------------
B ----------------------------------------------------------------------------------------
G ----------------------------------------------------------------------------------------
D -2-2-2-2-2-2-2-6--5----5-6-5--2-2-2-2-2-2-2-6--5----5-6-5--2-2-2-2-2-2-2-6--5----5-6-5--
A -2-2-2-2-2-2-2-6--5----5-6-5--2-2-2-2-2-2-2-6--5----5-6-5--2-2-2-2-2-2-2-6--5----5-6-5--
E -0-0-0-0-0-0-0-4--3--0-3-4-3--0-0-0-0-0-0-0-4--3--0-3-4-3--0-0-0-0-0-0-0-4--3--0-3-4-3--

E ------------------------------
B ------------------------------
G ------------------------------
D -3-3-3-3-3-3-3-6--5-----------
A -3-3-3-3-3-3-3-6--5-----------
E -1-1-1-1-1-1-1-4--3--3-4-3-1==

Riff 7

E -----------------------------------------------------------------------------------------
B -----------------------------------------------------------------------------------------
G -------------7----6----------------------------------------------------------------------
D -----------------------5/9------------------------------10----9--------------------------
A -7--7-7-10-7---------------7----------------7--7-7-10-7------------10-8-7----------------
E -----------------------------------------------------------------------------------------

Riff 7A

E -------------------------------------------------------
B -------------------------------------------------------
G -------------7----6------------------------------------
D -----------------------5/9-------------10----9---------
A -7--7-7-10-7---------------7--7-7-10-7------------10-8-
E -------------------------------------------------------

Riff 7B

E ------------------------------------------------------
B -------------8----7-----------------------------------
G -----------------------7-9-------------10----9--------
D --------------------------------------------------8-9-
A -7--7-7-10-7---------------7--7-7-10-7----------------
E ------------------------------------------------------

Riff 8

E -----------------------------------------------------------------------------
B -----------------------------------------------------------------------------
G ---------------4----5--------4-----------------------------------------------
D -2--------5----4----5--------4-----------4--------5--------------------------
A -2--------5----2----3--------2----3-2----4--------5----6----7----------------
E -0--------3---------------------------3--2--------3--------------------------

Riff 9

E ------------------------------------------------------------------------
B ------------------------------------------------------------------------
G -------------------4----5------------4----------------------------------
D -2------------5----4----5------------4-----------4------------5----4----
A -2------------5----2----3----3-3-3-3-2----3-2----4------------5----4----
E -0----0-0-0-0-3-------------------------------3--2----2-2-2-2-3----2----

Riff 9A

E ------------------------------------------------------------------------
B ------------------------------------------------------------------------
G -------------------4----5------------4----------------------------------
D -2------------5----4----5------------4-----------4------------5---------
A -2------------5----2----3----3-3-3-3-2----3-2----4------------5----6----
E -0----0-0-0-0-3-------------------------------3--2----2-2-2-2-3---------

Riff 9B

E -------------------------------------------------------------------------------------------------
B -------------------------------------------------------------------------------------------------
G -------------------------------------------------------------------------------------------------
D -------------------------------------------------------------------------------------------------
A -7---7---7---7---7---7---7---7---7---7---7---7---7---7---7---7---7---7---7---7---7---7---7---7---
E ---7---7---7---7---7---7---7---7---7---7---7---7---7---7---7---7---7---7---7---7---7---7---7---7-

Riff 9C

E ---------------------------------------------------------------------
B ---------------------------------------------------------------------
G ---------------------------------------------------------------------
D --------------------------9--------7----9-7--------------------------
A -7-----7-----9-----10------------------------------------5-----6-----
E ----7-----7-----7------7--------------------10--9-----------7-----7--

Riff 9D

E -------------------------------------------------------------------------------------------------
B -------------------------------------------------------------------------------------------------
G -------------------------4-4-4-4-5-5-5-5-5-5-5-5-4-4-4-4-5-4-------------------------------------
D -2-2-2-2-2-2-2-2-5-5-5-5-4-4-4-4-5-5-5-5-5-5-5-5-4-4-4-4-5-4-5-5-4-4-4-4-4-4-4-4-5-5-5-5-4-4-4-4-
A -2-2-2-2-2-2-2-2-5-5-5-5-2-2-2-2-3-3-3-3-3-3-3-3-2-2-2-2-3-2-5-5-4-4-4-4-4-4-4-4-5-5-5-5-4-4-4-4-
E -0-0-0-0-0-0-0-0-3-3-3-3-------------------------------------3-3-2-2-2-2-2-2-2-2-3-3-3-3-2-2-2-2-

Riff 10

E -------------------------------------------0------------------------------
B -------------------4-----5-----5-----3-------3----------------------------
G -0-----0-----4-----4-----5-----5-----4---------4--2-----2-----4-----2-----
D -2-----2-----5------------------------------------4-----4-----5-----4-----
A ----------------------2-----3-----3-----2---------------------------------
E ----0-----0-----3------------------------------------2-----2-----3-----2--

Riff 10

E -------------------------
B -------------------------
G -0-----0-----0-----0-----
D -2-----2-----2-----2-----
A -------------------------
E ----0-----0-----0-----0--

Order

Riff 1 x 2
Riff 2/2A x 2
Riff 3 x 6
Riff 4 x 2
Riff 3 x 6
Riff 4 x 3
Riff 4A x 1
Fill 1 x 1
Riff 5 x 2
Riff 6 x 4
Riff 5 x 2
Riff 7 x 2
Riff 7A x 2
Riff 7A/7B x 2
Solo over Riff 4 x 1
Solo over Riff 4B x 1
Riff 4C x 1
Riff 8 x 1
Riff 9/9A x 1
Riff 9/9B x 1
Riff 9/9C x 1
Riff 9C/9D until fade
Fade in with Riff 10 x 4
Riff 10A until fade



Important: The song above is NOT stored on the Chordie server. The original song is hosted at www.xguitar.com. Chordie works as a search engine and provides on-the-fly formatting. Chordie does not index songs against artists'/composers' will. To remove this song please click here.

This song is displayed as text-only. Transposing and tuning is only available for chordpro-songs.

Login - add to songbook

Rating click stars to rate

Layout
Accuracy

SHARE PAGE  




You need to log in to post comments