Chordie logo


E.Vil N.Ever D.Ies    Overkill



OVERKILL - E.VIL N.EVER D.IES
(The Years Of Decay, 1989)

Key
= after note = vibrato
^ after note = heavy vibrato
\\ = slide down
/ = slide up
+ = tap
h = hammer
p = pull
n = natural harmonic
s = pinching harmonic (squeal)
* = tremolo pick
t = trill
b = bend
|-3-| = triplet

n number above the tab = play the first part then the first finishing part
			 play the first part a second time and then play the second finishing part
			 etc.

Intro

E -5-------------------3--------------------------------------------
B ------5-------------------3--------------6------------------------
G -----------4-------------------2--------------5-------------------
D ----------------2-------------------0--------------5--------------
A --------------------------------------------------------3----7----
E ------------------------------------------------------------------

E --------------------------------------------------------------------12----14----15----14----12----10----12----
B --------------------------------------------------------------------12----14----15----14----12----10----12----
G ----9----11-----12-14----16----14----12---11------------------------------------------------------------------
D ------------------------------------------------2----4----5----7----------------------------------------------
A -7----9-----10-----12----14----12----10---9 ----2----4----5----7----------------------------------------------
E --------------------------------------------------------------------------------------------------------------

E ------------------10------------------------------------------------------------------------
B -10---------10----------10----------------13----------------------11--------------9---------
G -------9----------------------12----12----------10----------10---------------8---------8----
D ------------------------------12----------------------10----------------8-------------------
A --------------------------------------------------------------------------------------------
E --------------------------------------------------------------------------------------------

E --------0---------------0---------------0--
B -----6---------------6---------------6-----
G ---4---------------4---------------4-------
D -------------------------------------------
A -------------------------------------------
E -0---------------0---------------0---------

Riff 1

E -------------------------------------------------------------------------------------
B -------------------------------------------------------------------------------------
G -------------------------------------------------------------------------------------
D -4-3----3--4-3----3--4-3----3--4-3----3--4-3----3--4-3----3--4-3----3--4-3----3--4-2-
A -4-3----3--4-3----3--4-3----3--4-3----3--4-3----3--4-3----3--4-3----3--4-3----3--4-2-
E -2-1-1--1--2-1-1--1--2-1-1--1--2-1-1--1--2-1-1--1--2-1-1--1--2-1-1--1--2-1-1--1--2-0-

Riff 2A

E ---------------------------------------------------------------------------------
B ---------------------------------------------------------------------------------
G ---------------------------------------------------------------------------------
D ---------------------------------------------------------------------------------
A ---------------------------------------------------------------------------------
E -00-0-00-0-00-0-00-0-00-0-00-0-00-0-00-0-00-0-00-0-00-0-00-0-00-0-00-0-00-0-00-0-

Riff 2

E -------------------------------------------------------------------------------------------------------------------
B -------------------------------------------------------------------------------------------------------------------
G -------------------------------------------------------------------------------------------------------------------
D ------------------------------------3-------------------------------------4-------------------------------------5--
A ------------------------------------3-------------------------------------4-------------------------------------5--
E -00-0-00-0-00-0-00-0-00-0-00-0-00-0-1--00-0-00-0-00-0-00-0-00-0-00-0-00-0-2--00-0-00-0-00-0-00-0-00-0-00-0-00-0-3--

E -------------------------------
B -------------------------------
G -------------------------------
D -------------------------------
A -------------------------------
E -00-0-00-0-00-0-00-0-00-0-00-0-

Fill 1

E -----------------------------------------------
B -----------------------------------------------
G -----------------------------------------------
D -8----------------8-8---8-8---8--------------2-
A -8----------------8-8---8-8---8--------------2-
E -6----------------6-6---6-6---6--------------0-

Riff 3

E --------------------------------------------------------------------------------------------------------------
B --------------------------------------------------------------------------------------------------------------
G -5--4-3---------5--4-3---------5--4-3----------------------------5--4-3---------5--4-3---------5--4-3---------
D -5--4-3---------5--4-3---------5--4-3----------------------------5--4-3---------5--4-3---------5--4-3---------
A -3--2-1---------3--2-1---------3--2-1----------------------------3--2-1---------3--2-1---------3--2-1---------
E ---------0-23-0---------0-23-0--------0-00-0-00-0-00-0-00-0-00-0---------0-23-0---------0-23-0---------0-00-0-

E ---------------------------------------------
B ---------------------------------------------
G ----------------5------0-----0-----0---------
D ----------------5----0-----0-----0---5--4--2-
A ----------------3--3-----2-----1-----5--4--2-
E -00-0-00-0-00-0----------------------3--2--0-

Riff 3A

E --------------------------------------------------------------------------------------------------------------
B --------------------------------------------------------------------------------------------------------------
G -5--4-3---------5--4-3---------5--4-3----------------------------5--4-3---------5--4-3---------5--4-3---------
D -5--4-3---------5--4-3---------5--4-3----------------------------5--4-3---------5--4-3---------5--4-3---------
A -3--2-1---------3--2-1---------3--2-1----------------------------3--2-1---------3--2-1---------3--2-1---------
E ---------0-23-0---------0-23-0--------0-00-0-00-0-00-0-00-0-00-0---------0-23-0---------0-23-0---------0-00-0-

E -------------------------------------------
B -------------------------------------------
G ----------------5------0-----0-----0-------
D ----------------5----0-----0-----0---5--4--
A ----------------3--3-----2-----1-----5--4--
E -00-0-00-0-00-0----------------------3--2--

Riff 4

E ------- ----------------------
B ------- ----------------------
G ------- ----------------------
D -8-8-8- -8----8-8---8------8--
A -8-8-8- -8----8-8---8------8--
E -6-6-6- -6----6-6---6------6--

Riff 4A

E ------- -------------------- ---
B ------- -------------------- ---
G ------- -------------------- ---
D -8-8-8- -8-8-8-8-8----8-8-8- -2-
A -8-8-8- -8-8-8-8-8----8-8-8- -2-
E -6-6-6- -6-6-6-6-6----6-6-6- -0-

Riff 4B

E --- ----------
B --- ----------
G --- ----------
D -8- -8----8-8-
A -8- -8----8-8-
E -6- -6----6-6-

Fill 2

E ------------------------------------------------------------------------
B ------------------------------------------------------------------------
G ------------------------------------------------------------------------
D -9------------------------11---------10---------------------------------
A ------------------------------------------------------------------------
E ------------------------------------------------------------------------

Riff 5

E ----------------------------------------------------
B ----------------------------------------------------
G ----------------------------------------------------
D -2-2-2--4--5--2-2-2--4--5--2-2-2--4--5--6--5--4--3--
A -2-2-2--4--5--2-2-2--4--5--2-2-2--4--5--6--5--4--3--
E -0-0-0--2--3--0-0-0--2--3--0-0-0--2--3--4--3--2--1--

Riff 5A

E ----------------------------------------------------------------
B ----------------------------------------------------------------
G ----------------------------------------------------------------
D -2-2-2--4--5--2-2-2--4--5--2-2-2--4--5--6--3--4--5--6--3--4--5--
A -2-2-2--4--5--2-2-2--4--5--2-2-2--4--5--6--3--4--5--6--3--4--5--
E -0-0-0--2--3--0-0-0--2--3--0-0-0--2--3--4--1--2--3--4--1--2--3--

Riff 5B

E ----------------------------------------------------------------------------
B ----------------------------------------------------------------------------
G ----------------------------------------------------------------------------
D -2-2-2--4--5--2-2-2--4--5--2-2-2--4--5--6--3--4--5--6--3--4--5--6--3--4--5--
A -2-2-2--4--5--2-2-2--4--5--2-2-2--4--5--6--3--4--5--6--3--4--5--6--3--4--5--
E -0-0-0--2--3--0-0-0--2--3--0-0-0--2--3--4--1--2--3--4--1--2--3--4--1--2--3--

Riff 6

E -----------------------------------------------------------------------------------------------------
B -----------------------------------------------------------------------------------------------------
G ----------------------3-3----------------------3-----------------------3-3---------------------------
D -2--2--3--2--2--2--3--3-3-2--2--3--2--2--2--3--3--2--2--3--2--2--2--3--3-3-2--2--3--2--6-6-6--4-4-4--
A -2--2--3--2--2--2--3--1-1-2--2--3--2--2--2--3--1--2--2--3--2--2--2--3--1-1-2--2--3--2--6-6-6--4-4-4--
E -0--0--1--0--0--0--1------0--0--1--0--0--0--1-----0--0--1--0--0--0--1------0--0--1--0--4-4-4--2-2-2--

Fill 3

E --------------
B --------------
G --------------
D -2----2-2---8-
A -2----2-2---8-
E -0----0-0---6-

Riff 7

E ------------------------------------------------------------------------------------------------------------------
B ------------------------------------------------------------------------------------------------------------------
G ---------------------5--4-3-----5--4-3-----5--4-3--------------------------------5--4-3-----5--4-3-----5--4-3-----
D ---------------------5--4-3-----5--4-3-----5--4-3--------------------------------5--4-3-----5--4-3-----5--4-3-----
A ---------------------3--2-1-----3--2-1-----3--2-1--------------------------------3--2-1-----3--2-1-----3--2-1-----
E -00-0-00-0-00-0-00-0----------------------------------00-0-00-0-00-0-00-0-00-0-0----------------------------------

E -------------------------------------------------
B -------------------------------------------------
G -------------------------6-----7-----6-----------
D ---------------------4-4---4-4---4-4---4-4-5--4--
A -------------------------------------------5--4--
E -00-0-00-0-00-0-00-0-----------------------3--2--

Order

Intro x 1
Riff 1 x 1
Riff 2A x 2
Fill 1 x 1
Riff 2 x 1
Riff 3 x 1
Solo over Riff 2A x 2
Solo over Riff 4 x 1
Riff 2 x 1
Riff 3 x 1
Solo over Riff 2A x 2
Solo over Riff 4A x 1
Fill 2 x 2
Riff 5 x 3
Riff 5A x 1
Riff 5 x 3
Riff 5B x 1
Riff 6 x 4
Fill 3 x 1
Riff 2 x 1
Riff 3 x 1
Solo over Riff 2A x 2
Solo over Riff 4B x 1
Riff 2 x 1
Riff 3A x 1
Riff 7 x 1
Riff 1 x 1



Important: The song above is NOT stored on the Chordie server. The original song is hosted at www.xguitar.com. Chordie works as a search engine and provides on-the-fly formatting. Chordie does not index songs against artists/composers will. To remove this song please click here.

This song is displayed as text-only. Transposing and tuning is only available for chordpro-songs.

Login - add to songbook

Rating click stars to rate

Layout
Accuracy

SHARE PAGE  




You need to log in to post comments