Chordie logo


Zombie Stomp   Ozzy Osbourne



Tune down 1/2 step: Eb Ab Db Gb Bb Eb

|----------------------------------------------------------
|----------------------------------------------------------
|----------------------------------------------------------
|-4444-4444444444444444-222-3-4444444444444-222-3-4444444--
|----------------------------------------------------------
|----------------------------------------------------------

|----------------------------------------------------------
|----------------------------------------------------------
|--------22----------22------------------------------------
|-444444----422444444--424444-4444444444-2-4444------------
|----------------------------------------------------------
|---------------------------------------------continue-----

4 times:          1,2,3)=================4)================|
|----------------------------------------|--------PH-------|
|-5-------4--5---------------------------|---------4^-^----|
|-4-------4--4----------------11-11-9-11-|---------4^-^----|
|-4-------4--4-----4----------11-11-9-11-|-2---------------|
|-2-------2--2-----4-----------9--9-7--9-|-2---------------|
|------------------2---------------------|-0---------------|

|---------------------------|------------------------------|
|---------------------------|-------------------PH---------|
|-1/2---------------------2-|-1/2----------------4~~-------|
|-1/2---------------------2-|-1/2----------------4---------|
|-------------------------0-|------------------------------|
|-----2-2-2-2-0-2---2-2-2---|-----2-2-2-2-0-2--x-----------|

"I dont need no doctor..."
|----------------------------------------------------------|
|----------------------------------------------------------|
|------------------2--4------------------------------------|
|-4----------------2--4--------------2---------------------|
|-4-------------------2--------4-3-2-2--(back to main riff)|
|-2----------2-4-5-------------------0---------------------|

"Searching for a different ride..."
|----------------------------------------------------------|
|-7-----------5---------3----------5-----------------------|
|-6-----------4---------2----------4-----------------------|
|-4-----------2---------0----------2----4-4-7-7-6-6-6-6----|
|-----------------------0----------------------------------|
|----------------------------------------------------------|
"Why cant they just let me be..."
|----------------------------------------------------------|
|-7-----------5---------3----------------------------------|
|-6-----------4---------2---------4-------4-4---2----------|
|-4-----------2---------0---------4-------4-4---2---4------|
|-----------------------0---------2-------2-2---0---4------|
|---------------------------------------------------2------|

Solo:
|----------------------------------------------------------
|----------------------------------------------------------
|-/8---------/8---\\7-----6---\\-/8----8/11---10\\------------
|----------------------------------------------------------
|-/6---------/6---\\5-----4---\\-/6----6/9-----8\\------------
|----------------------------------------------------------

|------------------------------------trill=========================================|
|-17^-^17^^^^------17^~~~~~---19^\\-/141714-131513-121512-11141114-101310-9129-8118-|
|----------------------------------------------------------------------------------|
|----------------------------------------------------------------------------------|
|----------------------------------------------------------------------------------|
|----------------------------------------------------------------------------------|

|--------------------------------|-----------------------------|
|-14-14-14----14-14----14-14-----|-----------------------------|
|-14-14-14----14-14----14-14-----|----5---5-----5-----5--------|
|----------16-------16-------16\\-|-5-6-5-6--5-6---5-6---4^-2---|
|--------------------------------|---------------------------4-|
|--------------------------------|-----------------------------|

|-----------------------|----------|-----------------------------------|
|-2-2-2----2-2----2-2---|-2--5--7--|------------(all bends)------------|
|-2-2-2----2-2----2-2---|-4^-7^-9^-|-----------------------------------|
|-------4------4------4-|----------|-16-16-16-16-16-16-16-16-16-16-16--|
|-----------------------|----------|-----------keep bending...---------|
|-----------------------|----------|-----------------------------------|
end of solo

|--------------------------------|------------------------------|
|--------------------------------|------------------------------|
|--------------------------------|------------------------------|
|--------------------4-4-2-2-----|--------------------------2^--|
|-4-4-2-4--2-4-4-4-2---------4-2-|-4-4-2-4--2-4-4-4-4-2-3-4-----|
|--------------------------------|------------------------------|

|--------------------------------|------------------------------|
|--------------------------------|------------------------------|
|--------------------4-4-2-2-----|---------4-4-------------4-2^-|
|-4-4-2-4--2-4-4-4-2---------4-2-|-2-2-2-2-----2-2-1-1-1-1------|
|--------------------------------|------------------------------|


Important: The song above is NOT stored on the Chordie server. The original song is hosted at www.xguitar.com. Chordie works as a search engine and provides on-the-fly formatting. Chordie does not index songs against artists/composers will. To remove this song please click here.

This song is displayed as text-only. Transposing and tuning is only available for chordpro-songs.

Login - add to songbook

Rating click stars to rate

Layout
Accuracy

SHARE PAGE  




You need to log in to post comments