Mr. Crowley

Ozzy Osbourne


MR. CROWLEY As recorded by Ozzy Osbourne / Randy Rhoads (From the 1987 Album TRIBUTE)
Words and Music by Osbourne, Rhoads, Daisley Transcribed by Hair_rocker@yifan.net
Gtr I (E A D G B E) - 'Piano' Gtr II (E A D G B E) - 'Randy '
Intro Q=94 4/4 Gtr I ||--------------|--------------|-------------|--------------| ||o-------------|--------------|-------------|--------------| ||--------------|-2--------2-0-|----------4--|-5--------5-4-| ||--0---2-3--5--|-----2--------|-3---5-7-----|-----5--------| ||o-------------|-------0------|-------------|-------3------| ||--------------|--------------|-------------|--------------|
|-------------|------------|------------|-------------| |-------------|------------|------------|-------------| |-----4-5--7--|-9----------|---------5--|-7--5--4--5--| |-7-----------|----9-------|-7----8--3--|-5--3--2--3--| |-------------|-------7----|------------|-------------| |-------------|------------|-5----6--1--|-3--1--0--1--|
1st Verse 1. 2. Q=106 Gtr II |----------|---------------||----------||---------------| |----------|--------------o||----------||---------------| |-2--------|-(2)-----------||-2--------||-7----(7)------| |----------|----------3-2--||----------||-7----(7)------| |----------|--------------o||----------||-5----(5)-0----| |----------|---------------||----------||------------1--|
~~~~~~ PM----| ~~~~~~~~ |-------------|--------------------|--------------|--------------| |-------------|--------------------|--------------|--------------| |-7-----------|-3---3-(3)----------|-3---3-(3)----|-7----(7)-----| |-7-----------|-3---3-(3)----------|-3---3-(3)----|-7----(7)-----| |-5-----------|-1---1-(1)--1-3-1-0-|-1---1-(1)-3--|-5----(5)-0---| |------18\----|--------------------|--------------|------------1-|
~~~~~~ PM----| |-------------|--------------------|-----------------| |-------------|--------------------|-----------------| |-7-----------|-3---3-(3)----------|-3----3-(3)---x--| |-7-----------|-3---3-(3)----------|-3----3-(3)---3--| |-5-----------|-1---1-(1)--1-3-1-0-|-1--0-1-(1)---1--| |------22\----|--------------------|-----------------|
|---------------------|--------------------|---------------| |---------------------|-----------5--6p=5--|-6----(6)------| |-x---3--5-(5)---3--5-|-(5)-------5--5-(5)-|-7----(7)------| |-5---3--5-(5)---3--5-|-(5)-------5--7p=5--|-7----(7)---/x-| |-3--(3)-3-(3)--(3)-3-|-(3)---5h7----------|-5----(5)------| |---------------------|--------------------|---------------|
~ PM PM| |---------------------|-----------------|-----------------| |-----5-6-5-6s8--8s6--|-----------------|-----------------| |-----5-7-5-7s9--9s7--|-5----5-(5)----5-|-(5)-------5--5--| |-5h7-----------------|-5----5-(5)----5-|-(5)-------5--5--| |---------------------|-3--0-3-(3)--0-3-|-(3)---0-1-3--3--| |---------------------|-----------------|-----------------|
2nd Verse \0.5____________________________________________________ |------------|--------------------||----------------|-----------------| |------------|--------------------||----------------|-----x\-----/x\--| |-3--3-------|--------------------||-7----(7)-------|--------x\-------| |-3--3-----3-|--------------------||-7----(7)-------|-7---------------| |-1--1-----1p|=0------(0)---------||-5----(5)-0-----|-5---------------| |------------|-------------17\----||------------1p0-|-----------------|
~~~~~~ PM----| ~ |----------------------|----------------|--------------|--------------| |----------------------|----------------|--------------|--------------| |------3-(3)-----------|------3-(3)-----|-7----(7)-----|-7------------| |-3----3-(3)-----------|-3----3-(3)-----|-7----(7)-----|-7------------| |-1--0-1-(1)-x-1-3-1-0-|-1--0-1-(1)-3---|-5----(5)-0---|-5----/20\----| |----------------------|----------------|------------1-|--------------|
~~~~~~ PM----| ~~~~~~ PM--| |---------------------|-------------------|-----------------| |---------------------|-------------------|-----------------| |---------------------|------x------------|-5----5-(5)----5-| |-3----3-(3)----------|-3----3-(3)--------|-5----5-(5)----5-| |-1--0-1-(1)--1-3-1-0-|-1--x-1-(1)--x-0-1-|-3--0-3-(3)--0-3-| |---------------------|-------------------|-----------------|
|----------------------------------------|--------------| |----6p=5h=6p=5h=6p=5h=6p=5h=6p=5h=6p=5--|--------------| |-5--5-(5)(5)(5)(5)(5)(5)(5)(5)(5)(5)(5)-|-7---7-(7)----| |-5--7p=5h=7p=5h=7p=5h=7p=5h=7p=5h=7p=5--|-7---7-(7)----| |-3--------------------------------------|-5---5-(5)----| |----------------------------------------|--------------|
PM----------| |-------------------------------------|---------------|-------------------| |-3h4p3---3---------------------------|---------------|-------------------| |-------5---5-3h5p3s2---2-------------|-----5-(5)---5-|-(5)-------5--5----| |---------------------5---5-3-5-3-2---|-5---5-(5)---5-|-(5)---0h2-5--5----| |-----------------------------------5-|-3---3-(3)---3-|-(3)---------------| |-------------------------------------|---------------|-------------------|
|-----------------|--------|| |-----------------|--------|| |-3----3--(3)-----|--------|| |-3----3--(3)---2-|-(2)----|| |-1----1--(1)-1p0-|-(0)----|| |-----------------|--------||
Guitar solo |----------10-----------------------10-----------------------10-----------------------10-------(10)-| |-------10----13p10--------------10----13p10--------------10----13p10--------------10----13p10------| |-12b14-------------12b14==(12)r-------------12b14==(12)r-------------12b14==(12)r------------------| |---------------------------------------------------------------------------------------------------| |---------------------------------------------------------------------------------------------------| |---------------------------------------------------------------------------------------------------|
|-13p10----10-------------------------------------------------------------| |-------13----13-10-13p10----10-------------------------------------------| |-------------------------12----12-10-12p10----10----------------10-10-12-| |-------------------------------------------12----12-10-12p10h12----------| |-------------------------------------------------------------------------| |-------------------------------------------------------------------------|
|----------------------------10-x-13p12-10Sx-15p13p12Sx-16p15p13Sx-18p16p15Sx-20p18p17-| |-------------13-13-13p10-13-----------------------------------------------------------| |-12p10-12S14--------------------------------------------------------------------------| |--------------------------------------------------------------------------------------| |--------------------------------------------------------------------------------------| |--------------------------------------------------------------------------------------|
~~ |-20b22---20b22r(20)-20--20p17h18-20p17h18p17-| |---------------------------------------------| |---------------------------------------------| |---------------------------------------------| |---------------------------------------------| |---------------------------------------------|
|-17h18p17----17-------17h18p17----17--------------------------------------------------| |----------20----18-20----------20----20p17h18p17----17--------------------------------| |-------------------------------------------------19----19p17------17------------------| |-------------------------------------------------------------(20)----20p19p17----17---| |------------------------------------------------------------------------------20------| |--------------------------------------------------------------------------------------|
~~~~~~~~ ~~~~~~~ |------------------------20b22===| |--------------------------------| |---------------------x----------| |----------17---------x----------| |-19--(19)----19-(19)-x----------| |--------------------------------|
|-(20)r=(20)p17h20p17h18p17-18p17----17-------------------------| |---------------------------------20----20p17-18p17h18p17h18p17-| |---------------------------------------------------------------| |---------------------------------------------------------------| |---------------------------------------------------------------| |---------------------------------------------------------------|
~~~~ |----------20---(20)--(20)\---|| |-20b22===(20)--(20)--(20)r\--|| |-----------------------------|| |-----------------------------|| |-----------------------------|| |-----------------------------||
|-13p10----10-------13p10----10-------13p10-10-10-------13p10-10-10-------| |-------13----13p10-------13----13p10-------------13-10-------------13p10-| |-------------------------------------------------------------------------| |-------------------------------------------------------------------------| |-------------------------------------------------------------------------| |-------------------------------------------------------------------------|
|-13p10----10-------13-10----10-------13p10----10-------13p10----10-------| |-------13----13p10-------13----13p10-------13----13p10-------13----13p10-| |-------------------------------------------------------------------------| |-------------------------------------------------------------------------| |-------------------------------------------------------------------------| |-------------------------------------------------------------------------|
PM----------| |-13p10----10-----------------------------------------------5-| |-------13----13p10-11p10----10-------------------------5h6---| |-------------------------12----12p9-10-9S7-9-7S5-7p5---------| |-----------------------------------------------------7-------| |-------------------------------------------------------------| |-------------------------------------------------------------|
|-----------------8---------| |-8b10===(8)-(8)-(8)--8r(8)-| |---------------------------| |---------------------------| |---------------------------| |---------------------------|
~~~~ ~~~~~ |---------------------------|-----------------------| |-6---------6p5-------------|-----------------------| |---7-7-7p5-----7-5---------|-----------------------| |-------------------8p7p5---|-5-----------5---------| |-------------------------8-|---8p7p5-7h8---8-7--5--| |---------------------------|-----------------------|
3rd Verse \7___________________________ ~~~~~~~~ |-------------------------|------------||---------------| |-------------------------|------------||-6----(6)------| |-------------------------|------------||-7----(7)------| |-------------------------|------------||-7----(7)------| |-4--5--7--12h13p12h13p12-|-0----------||-5----(5)-0----| |-------------------------|------------||------------1--|
PM----| ~ |----------------|---------------------|----------------|------------------| |----------------|---------------------|----------------|------------------| |-7----(7)-------|-3----3-(3)----------|-3----3-(3)-----|-7----(7)---------| |-7----(7)-------|-3----3-(3)----------|-3----3-(3)-----|-7----(7)---------| |-5----(5)-------|-1--0-1-(1)--1-3-1-0-|-1--x-1-(1)-3---|-5----(5)-0-------| |----------18\---|---------------------|----------------|------------1p0---|
PM----| |---------------|-----------------------|---------------| |---------------|-----------------------|---------------| |-7----(7)-x\---|--------3-(3)----------|-3----3-(3)----| |-7----(7)------|-3---3--3-(3)----------|-3--3-3-(3)----| |-5----(5)------|-1--(0)-1-(1)--1-3-1-0-|-1--0-1-(1)----| |---------------|-----------------------|---------------|
|----------------|--------------------------------| |----------------|--------6p=5h=6p=5h=6p=5h=6p=5--| |-5---5-(5)----5-|-(5)----5-(5)(5)(5)(5)(5)(5)(5)-| |-5---5-(5)----5-|-(5)----7p=5h=7p=5h=7p=5h=7p=5--| |-3---3-(3)--x-3-|-(3)----------------------------| |----------------|--------------------------------|
~~~~ |---------------|-------10--------------------------------------| |-6-------13b15-|-(13)-----13-11-10h12p10----10-----------------| |-7-------------|-------------------------13----13p10h13p10-----| |-7-------------|-------------------------------------------12--| |-5-------------|-----------------------------------------------| |---------------|-----------------------------------------------|
|-----------------|------------------|--------------|--------|| |-----------------|-----------5--5\--|--------------|--------|| |-5----5-(5)----5-|-(5)-------5--5\--|-3------(3)-x-|--------|| |-5----5-(5)----5-|-(5)-------5--5\--|-3------(3)-2-|-(2)----|| |----x-3-(3)--x-3-|-(3)---5h7--------|-1------(1)-0-|-(0)----|| |-----------------|------------------|--------------|--------||
Interlude |--------------1p0-----|-----5-3--(3)--|-----------------------| |-3--(3)---3-------3p1-|-----6-5---5---|-----------------------| |-2--(2)-2---2---------|-3-------------|-5--(5)---5h7-9p7------| |-0--(0)---------------|-3-------------|-5--(5)-5---------10p8-| |----------------------|---------------|-----------------------| |----------------------|---------------|-----------------------|
|----------------|---------------------|-3------------|---------------| |-----8-6--------|-3---3h4S6-4-3-------|-5---6--5-----|-2--3--5--6----| |----------7-----|-3---3h5S7-5-3-3-----|-3---3-(3)----|---------------| |-7----------(7)-|-----------------(3)-|-5------------|---------------|
|----------------|---------------------|--------------|---------------| |----------------|---------------------|--------------|---------------|
|------------||---------(0)-1-0-----|-----5-3----------| |-5--3--2----||-------3---------3p1-|-----6-5----------| |------------||--2------------------|-3----------------| |------------||--0------------------|-3----------------| |------------||-(0)-----------------|----------3s5-5h7-| |------------||---------------------|------------------|
|-------------------|---------------------|----------------------| |-----5h6-8p6-5--5--|--6-----8---6---(6)--|----------3h4-6-4-3---| |-5--------------5--|--7----(7)-(7)---7---|-3--(3)-3-3h5-7-5-3-3-| |-5-------------(5)-|-(7)---(7)-(7)---7---|-3--(3)-------------x-| |-------------------|---------------------|----------------------| |-------------------|---------------------|----------------------|
|--------3-------|----------|--------|| |--5----(5)-5----|----------|--------|| |-(3)---(3)------|-2--------|-(2)----|| |-(5)---(5)------|-2--------|-(2)----|| |----------------|-0--------|-(0)----|| |----------------|----------|--------||
Outro solo Gtr II |-17p13----17p13----17p13----17p13----17p13----17p13----17p13----17p13----| |-------15-------15-------15-------15-------15-------15-------15-------15-| |-------------------------------------------------------------------------| |-------------------------------------------------------------------------| |-------------------------------------------------------------------------| |-------------------------------------------------------------------------|
|-18p13----18p13----18p13----18p13----18p13----18p13----18p13----18p13----| |-------15-------15-------15-------15-------15-------15-------15-------15-| |-------------------------------------------------------------------------| |-------------------------------------------------------------------------| |-------------------------------------------------------------------------| |-------------------------------------------------------------------------|
|-15p12----15p12----15p12----15p12----15p12----15p12----15p12----15p12----| |-------13-------13-------13-------13-------13-------13-------13-------13-| |-------------------------------------------------------------------------| |-------------------------------------------------------------------------| |-------------------------------------------------------------------------| |-------------------------------------------------------------------------|
|-17p13----17p13----17p13----17p13----17p13----17p13----17p13----17--| |-------13-------13-------13-------13-------13-------13-------13-----| |--------------------------------------------------------------------| |--------------------------------------------------------------------| |--------------------------------------------------------------------| |--------------------------------------------------------------------|
|-------------------------------------0-0--| |-15h16p15h16-15h16p15h16-16s18-16-15------| |-15h17p15h17-15h17p15h17-17s19-17-15------| |------------------------------------------| |------------------------------------------| |------------------------------------------|
Gtr II TP TP TP TP TP TP TP TP |-15--12------12--|-9--9s10-12-13--------20b22==(20)-| |---------11------|----------------20-17-------------| |-----------------|----------------------------------| |-----------------|----------------------------------| |-----------------|----------------------------------| |-----------------|----------------------------------|
~~~~ |-(20)r(20)p17--------20--(20)--x-0-0-| |--------------20b22-(20)-(20)--x-----| |-------------------------------------| |-------------------------------------| |-------------------------------------| |-------------------------------------|
|-9h10p9h10p9h10----------------------------------------------| |----------------10h11p10h11p10h11----------------------------| |----------------------------------9h10p9h10p9h10-6h7p6h7p6h7-| |-------------------------------------------------------------| |-------------------------------------------------------------| |-------------------------------------------------------------|
~~~~~ |------------10-13p12p10---------0-0--| |------10h11-------------13b15--------| |-9s10--------------------------------| |-------------------------------------| |-------------------------------------| |-------------------------------------|
~ |-5-5h6-8p5-6p5---5---------------------|-------------------------| |---------------8---8-6p5-6p5---5-------|-------------------------| |-----------------------------7---7p5---|-5-----------------------| |-------------------------------------8-|---8-7-5-7p5-------------| |---------------------------------------|-------------7-5-8-------| |---------------------------------------|--------------------8\---|
~ |-------------------------------------5h6-8-6p5-|------------------------| |-------------------------------5h6h8-----------|-8-6p5---5--------------| |-------------------2h3h5-3h5h7-----------------|-------7---7p6-7S9--7p0-| |-------------2h3h5-----------------------------|------------------------| |-------1h3h5-----------------------------------|------------------------| |-1h3h5-----------------------------------------|------------------------|
|-------------------------------------------------------| |-------------------------------------------------------| |-6h7p6h7p6s7-9p7h9p7h9S10p9h10p9h10S12p10h12p10h12p10/-| |-------------------------------------------------------| |-------------------------------------------------------| |-------------------------------------------------------|
|--------------------------------------------------------------------------| |--------------------------------------------------------------------------| |-/14p12h14p12h14S15p14h15p14h15p14h15S17p15h17p15h17p15S19p17h19p17h19p17-| |--------------------------------------------------------------------------| |--------------------------------------------------------------------------| |--------------------------------------------------------------------------|
~~ ~~ |----------------------|-------17-------17-18-20p17-| |-17-18-------17-18s19-|-20b22----20----------------| |-------19-------------|----------------------------| |----------------------|----------------------------| |----------------------|----------------------------| |----------------------|----------------------------|
|-18----17------------------------------------------| |----20----18-20p17-18----17------------------------| |----------------------19----19p17----17------------| |----------------------------------20----20p19p17---| |---------------------------------------------------| |---------------------------------------------------|
~~~~ |--------------------------------x-18-17-| |--------------------------------x-------| |-------17-------------------------------| |-19h20----20-19p17----------------------| |-------------------19-20-(20)-----------| |----------------------------------------|
|-21-19-18S17-20-18-17-(17)S16-19-17-16S15-18-16-15S14-17-15-14S13-16-14-13S12-15-(15)-13-12-(12)\-5h6p5----| |--------------------------------------------------------------------------------------------------------8--| |-----------------------------------------------------------------------------------------------------------| |-----------------------------------------------------------------------------------------------------------| |-----------------------------------------------------------------------------------------------------------| |-----------------------------------------------------------------------------------------------------------|
~~~~~~~ |-5------------------------------8-| |---8p5h6p5---5--------------------| |-----------7---7p6-7-7s9--(9)-x---| |----------------------------------| |----------------------------------| |----------------------------------|
\0.5/ \0.5/ ~~~~~~~~ |-(8)-(8)------(8)------(8)-|-(8)--------------| |---------------------------|------------------| |---------------------------|------/19----x\---| |---------------------------|-------------x\---| |---------------------------|------------------| |---------------------------|------------------|
PM--| PM| ~~~~~~~ |----------------------|--------------------------| |----------------------|--------------------------| |----------------------|--------------------------| |----------------3-----|----------6p5p3-------3-5-| |-5----(5)-5-3-5---5-3-|-5--(5)-5-------5-3h5-----| |----------------------|--------------------------|
|--------------------------------------13-15h16p15p13-15h16-(16)-| |-----------------------------10h13s15---------------------------| |-----5-7p(5)-7-9p(7)-9-10s12------------------------------------| |-5s7------------------------------------------------------------| |----------------------------------------------------------------| |----------------------------------------------------------------|
|-15-13-15-16-15-13-15-16-15-13---15-16-15-13---15-16-15\--------| |-------------------------------x-------------x-----------x\-----| |------------------------------------------------------------x-x-| |----------------------------------------------------------------| |----------------------------------------------------------------| |----------------------------------------------------------------|
PM| PM| PM| |-------------------------------------------------------------------------| |-------------------------------------------------------------------------| |-13p10-12p10-------13p10-12px----10-13p10-12p10-------13p10-12p10-12b14==| |-------------12-10------------12--x-------------12-10--------------------| |-------------------------------------------------------------------------| |-------------------------------------------------------------------------|
~~~~~~~~~~~~~~~~ |----------------------------------------------| |--------13------------------------------------| |-(12)--(12)-12r(12)p10-12-12-12-(12)-12-(12)\-| |----------------------------------------------| |----------------------------------------------| |----------------------------------------------|
~~~ |-------------|--------------|------------|--------| |-------------|--------------|------------|--------| |-------------|--------------|------------|--------| |-7--5--3-----|--------------|------------|--------| |----------5--|-3-------x-3--|-(3)--------|-(3)----| |-------------|----5--4-3-1--|-(1)--------|-(1)----|
|----------------|----------------------------| |----------------|-3------<12>----------------| |----------------|-2------<12>-17-19p17h19p17-| |--------x\--x\--|-0--------------------------| |-(3)----x\--x\--|----------------------------| |-(1)------------|----------------------------|
/ |--------------------------------------------------| |--------------------------------------------------| |-19p17h19p17h19p17h19p17h19p17hxp0-0-(0)-(0)h(7)--| |--------------------------------------------------| |--------------------------------------------------| |--------------------------------------------------|
|-------------------|----------*| |-------------------|----------*| |-(7)----(7)p0------|-0--------*| |-------------------|-0--------*| |--------------17\--|-x--------*| |-------------------|-x--------*|
Tablature Legend ---------------- h - hammer-on p - pull-off b - bend pb - pre-bend r - bend release (if no number after the r, then release immediately) /\ - slide into or out of (from/to "nowhere") s - legato slide S - shift slide - natural harmonic [n] - artificial harmonic n(n) - tapped harmonic ~ - vibrato tr - trill T - tap TP - trem. picking PM - palm muting \n/ - tremolo bar dip; n = amount to dip \n - tremolo bar down n/ - tremolo bar up /n\ - tremolo bar inverted dip = - hold bend; also acts as connecting device for hammers/pulls <> - volume swell (louder/softer) x - on rhythm slash represents muted slash o - on rhythm slash represents single note slash
Misc Legend ----------- | - bar || - double bar ||o - repeat start o|| - repeat end *| - double bar (ending) : - bar (freetime) $ - Segno & - Coda

variations - click chord images
Transpose chords:
Tuning:
Cool service:
View: Size:
A  A  A
Rating:
Layout:
  • Currently 0/5 Stars.
  • 1
  • 2
  • 3
  • 4
  • 5
 
Accuracy:
  • Currently 2.4/5 Stars.
  • 1
  • 2
  • 3
  • 4
  • 5
 
click stars to rate
Chordie recommends:
Learn how to play guitar at JamPlay.com
Songbook:
Login to add this song to your songbook
Support the artist
Preview/buy this song
MSN Music
Why this non-profit ad?

 
login to add comments/video/corrections