Guitar Tabs, Chords and Lyrics


Change the World   P.O.D.



Song: Change the World
Band: P.O.D.
Album: Payable on Death
Tabbed by: Jeremy Limbert

Vibrato = ~
Hammer on = h

Tuning:
E
B
G
D
A
D

Intro/ Chorus
|--------------------------------------------------------
|--------------------------------------------------------
|--------------------------------------------------------
|--0h111-1-1-6666666-0h111-1-1-6666666-5555-5-5-8888888--
|--0h111-1-1-6666666-0h111-1-1-6666666-3333-3-3-6666666--
|--0h111-1-1-6666666-0h111-1-1-6666666-3333-3-3-6666666--

|---------------------------
|---------------------------
|---------------------------
|--8888-8-8-10101010101010--
|--6666-6-6-8 8 8 8 8 8 8---
|--6666-6-6-8 8 8 8 8 8 8---

Verse
|---------------------------
|---------------------------
|---------------------------
|--777-7-888-8-121212-------
|--555-5-666-6-101010-------
|---------------------------

|------------------------------
|------------------------------
|------------------------------
|--121212-12~-888-8~-777-------
|--101010-10~-666-6~-555-------
|------------------------------

Interlude
|-------------------------------------------------------
|-------------------------------------------------------
|-------------------------------------------------------
|--3-1-3-1-6666-3-1-3-1-6666-8888-8888-88-8888-8888-88--
|--3-1-3-1-6666-3-1-3-1-6666-6666-6666-66-6666-6666-66--
|--3-1-3-1-6666-3-1-3-1-6666-6666-6666-66-6666-6666-66--

Listen to the song to get the order and please rate this!!!




Important: The song above is NOT stored on the Chordie server. The original song is hosted at www.xguitar.com. Chordie works as a search engine and provides on-the-fly formatting. Chordie does not index songs against artists/composers will. To remove this song please click here.

This song is displayed as text-only. Transposing and tuning is only available for chordpro-songs.

Login - add to songbook

Rating click stars to rate

Layout
Accuracy

SHARE PAGE  




You need to log in to post comments