eToCache5 = ""; ?> Reconciliation by Pain Of Salvation - guitar chords, guitar tabs and lyrics - chordie

Reconciliation

Pain Of Salvation

 A5G5Fsus2Em
      7 7 7 x x x          5 5 5 x x x          3 3 5 x x x          2 2 5 x x x
 F#5D5Db5
      4 4 4 x x x          x 5 7 7 x x          x 4 6 6 x x
Gtr I (D A D G B E) - 'Distortion'
Gtr II (D A D G B E) - 'Distortion'
Gtr III (D A D G B E) - 'Crunch'
Gtr IV (D A D G B E) - 'Crunch'
Gtr V (D A D G B E) - 'Clean'
Gtr VI (E A D G B E) - 'Solo guitar'
Q=138
 4/4
  Gtr I
~~~~~~~~~
Q H Q H. +E E +W
|----------------|---------------------------|---------------------------|
|----------------|-----------------------/13-|-(13)----------------------|
|----------------|--2----------------(2)-/12-|-(12)----------------------|
|----------------|--2----------------(2)-/10-|-(10)----------------------|
|---------(12)\--|--0----------------(0)-----|---------------------------|
|---------(12)\--|---------------------------|---------------------------|

|
| Gtr II
| ~~ ~~~
| W Q. Q Q E +E Q E E E E E
|----------------|---------------------------|---------------------------|
|----------------|-12b13r======12b13r========|======12b13r=======10------|
|----------------|---------10--------------9-|--(9)-----------------12---|
|----------------|---------------------------|-------------12-10-------9-|
|----------------|---------------------------|---------------------------|
|----------------|---------------------------|---------------------------|

~~~~~~~~~~~~~~~~~~~~~~~~~~
E E E H E +E Q E +H
|----------------------|---------------------------|
|----------12-------12-|-(12)-10---10-(10)---------|
|----------12-------10-|-(10)-10---10-(10)---------|
|-/10-12---10-------10-|-(10)-10---10-(10)---------|
|--------0-------------|---------------------------|
|----------------------|---------------------------|

|
| ~~ ~~~~~~~~~ ~
| E E E Q E E E +E E E E E E Q
|----------------------|---------------------------|
|----------------------|---------------------------|
|---9-10-9----------12-|-(12)------10---------9----|
|----------10--9h10----|------10p9------9--10------|
|----------------------|---------------------------|
|----------------------|---------------------------|

 4/4
               ~~~~~~~~~~~~~~~~~~~~~
E E E H E +W
|----------------------------|---------------------------|
|------------------------/13-|-(13)----------------------|
|-------------10---------/12-|-(12)----------------------|
|-------------10---------/10-|-(10)----------------------|
|-/10----12-0----------------|---------------------------|
|----------------------------|---------------------------|

|
| ~~ ~~~
| Q. Q Q E +E Q E E E E E
|----------------------------|---------------------------|
|--12b13r=========12b13r=====|======12b13r=======10------|
|-------------10-----------9-|--(9)-----------------12---|
|----------------------------|-------------12-10-------9-|
|----------------------------|---------------------------|
|----------------------------|---------------------------|

~~~~~~~~~~~~~~~~~~~~~~~~~~
E E E H E +E Q E +H
|----------------------|--------------------------|
|----------12-------12-|-(12)-10---13-(13)--------|
|----------12-------10-|-(10)-10---10-(10)--------|
|-/10-12---10-------10-|-(10)-10---10-(10)--------|
|--------0-------------|--------------------------|
|----------------------|--------------------------|

|
| ~~ ~~~~~~~~~ ~
| E E E Q E E E +E E E E E E Q
|----------------------|--------------------------|
|----------------------|--------------------------|
|---9-10-9----------12-|-(12)------10---------9---|
|----------10--9h10----|------10p9------9--10-----|
|----------------------|--------------------------|
|----------------------|--------------------------|

 4/4
               ~~~~~~~~~~~~~~~~~~~~~
 EEEBEEEEE
                                H]                                                                                                                                                       
|----------------------------|-----------------------------|
|------------------------/13-|-(13)-----------/10-13-12----|
|-------------10---------/12-|-(12)---------------------12-|
|-------------10---------/10-|-(10)------------------------|
|-/10----12-0----------------|-----------------------------|
|----------------------------|-----------------------------|

|
| ~~ ~~~
| Q. Q Q E +E Q E E E E E
|----------------------------|-----------------------------|
|--12b13r=========12b13r=====|======12b13r========10-------|
|-------------10-----------9-|--(9)------------------12----|
|----------------------------|-------------12--10--------9-|
|----------------------------|-----------------------------|
|----------------------------|-----------------------------|

~~ ~~~~~~~~~~ ~
E E E Q E E E +H E E Q
|-------------------------|------------------------|
|-------------------------|------------------------|
|----------------------9--|--(9)-------------------|
|-\10-12-10-----------10--|-(10)-------------------|
|-----------12--10-12-(8)-|--(8)---------\7--7-7---|
|-------------------------|------------------------|

|
| ~~ ~~~~~~~~~~ ~
| E E E Q E E E +E E E E E E Q
|-------------------------|------------------------|
|-------------------------|------------------------|
|---9-10--9-----------12--|-(12)------10-------9---|
|-----------10---9h10-----|------10p9-----9-10-----|
|-------------------------|------------------------|
|-------------------------|------------------------|

 4/4
               ~~~~~~~~~~~~~~~~~~~~~
 EEEBEEEEE
                                H]                                                                                                                                                       
|----------------------------|-----------------------------|
|------------------------/13-|-(13)-----------/10-13-12----|
|-------------10---------/12-|-(12)---------------------12-|
|-------------10---------/10-|-(10)------------------------|
|-/10----12-0----------------|-----------------------------|
|----------------------------|-----------------------------|

|
| ~~ ~~~
| Q. Q Q E +E Q E E E E E
|----------------------------|-----------------------------|
|--12b13r=========12b13r=====|======12b13r========10-------|
|-------------10-----------9-|--(9)------------------12----|
|----------------------------|-------------12--10--------9-|
|----------------------------|-----------------------------|
|----------------------------|-----------------------------|

~~ ~~~~~~~~~ ~
E E E Q E E E +H E E Q
|------------------------|------------------------|
|------------------------|------------------------|
|---------------------10-|-(10)-------------------|
|-\10-12-10-----------10-|-(10)-------------------|
|-----------12--10-12----|--------------\7--7-7---|
|------------------------|------------------------|

|
| ~~ ~~~~~~~~~ ~
| E E E Q E E E +E E E E E E Q
|------------------------|------------------------|
|------------------------|------------------------|
|---9-10--9-----------12-|-(12)------10-------9---|
|-----------10---9h10----|------10p9-----9-10-----|
|------------------------|------------------------|
|------------------------|------------------------|

 A5G5
  Gtr IV 
W +W W +W
| | | |
Gtr III
E E E Q E E E +W E E E Q E E E +E H +Q.
|------------------|------------|----------------|----------------|
|------------------|------------|----------------|----------------|
|------------------|------------|----------------|----------------|
|---7--7-----7-----|------------|-----5-7--7---7-|-(7)-5----(5)---|
|-----(7)-8----8-7-|-(7)--------|---5------------|----------------|
|-7--------------7-|-(7)--------|-5----------5---|----------------|

"I thought I'd seen hell..."
 A5G5
  W                  +W            W                +W
| | | |
E E E Q E E E +H. Q E E E Q E E E +E H +E Q
|------------------|-------------|----------------|------------------|
|------------------|-------------|----------------|------------------|
|------------------|-------------|----------------|------------------|
|-----7----7-------|-------------|-----5-7------7-|-(7)-5----(5)-----|
|---7---8----8--7--|-(7)---------|---5------5-----|------------------|
|-7------------(7)-|-(7)------7S=|=5----------5---|--------------5S==|

 Fsus2Em
  W                +W           W                +W
| | | |
Gtr I
E E E Q E E E +W E E E Q E E E +H. Q
|----------------|------------|----------------|-----------------|
|----------------|------------|----------------|-----------------|
|----------------|------------|----------------|-----------------|
|-----3-5------5-|-(5)--------|-----2-5------5-|-(5)-------------|
|---3------3-----|------------|---2------2-----|----------(12)\--|
|-3----------3---|------------|-2----------2---|----------(12)\--|

 4/4
                          ~~~~~~~~~
H. +E E +W
|---------------------------|---------------------------|
|-----------------------/13-|-(13)----------------------|
|--2----------------(2)-/12-|-(12)----------------------|
|--2----------------(2)-/10-|-(10)----------------------|
|--0----------------(0)-----|---------------------------|
|---------------------------|---------------------------|

|
| Gtr II
| ~~ ~~~
| Q. Q Q E +E Q E E E E E
|---------------------------|---------------------------|
|-12b13r======12b13r========|======12b13r=======10------|
|---------10--------------9-|--(9)-----------------12---|
|---------------------------|-------------12-10-------9-|
|---------------------------|---------------------------|
|---------------------------|---------------------------|

~~~~~~~~~~~~~~~~~~~~~~~~~~
E E E H E +E Q E +H
|----------------------|--------------------------|
|----------12-------12-|-(12)-10---10-(10)--------|
|----------12-------10-|-(10)-10---10-(10)--------|
|-/10-12---10-------10-|-(10)-10---10-(10)--------|
|--------0-------------|--------------------------|
|----------------------|--------------------------|

|
| ~~ ~~~~~~~~~ ~
| E E E Q E E E +E E E E E E Q
|----------------------|--------------------------|
|----------------------|--------------------------|
|---9-10-9----------12-|-(12)------10---------9---|
|----------10--9h10----|------10p9------9--10-----|
|----------------------|--------------------------|
|----------------------|--------------------------|

 4/4
               ~~~~~~~~~~~~~~~~~~~~~
 EEEBEEEEE
                                H]                                                                                                                                                       
|----------------------------|-----------------------------|
|------------------------/13-|-(13)-----------/10-13-12----|
|-------------10---------/12-|-(12)---------------------12-|
|-------------10---------/10-|-(10)------------------------|
|-/10----12-0----------------|-----------------------------|
|----------------------------|-----------------------------|

|
| ~~ ~~~
| Q. Q Q E +E Q E E E E E
|----------------------------|-----------------------------|
|--12b13r=========12b13r=====|======12b13r========10-------|
|-------------10-----------9-|--(9)------------------12----|
|----------------------------|-------------12--10--------9-|
|----------------------------|-----------------------------|
|----------------------------|-----------------------------|

~~ ~~~~~~~~~~ ~
E E E Q E E E +H E E Q
|-------------------------|------------------------|
|-------------------------|------------------------|
|----------------------9--|--(9)-------------------|
|-\10-12-10-----------10--|-(10)-------------------|
|-----------12--10-12-(8)-|--(8)---------\7--7-7---|
|-------------------------|------------------------|

|
| ~~ ~~~~~~~~~~ ~
| E E E Q E E E +E E E E E E Q
|-------------------------|------------------------|
|-------------------------|------------------------|
|---9-10--9-----------12--|-(12)------10-------9---|
|-----------10---9h10-----|------10p9-----9-10-----|
|-------------------------|------------------------|
|-------------------------|------------------------|

Gtrs I, II
E E E Q E E E +W E E E Q E E E +E H +Q.
|----------------|------------|----------------|----------------|
|----------------|------------|----------------|----------------|
|----------------|------------|----------------|----------------|
|-----7----7-----|------------|-----5-7------7-|-(7)-5----(5)---|
|---7---8----8-7-|-(7)--------|---5---5--5---5-|-(5)-5----(5)---|
|-7-----7----7-7-|-(7)--------|-5-----5----5-5-|-(5)-5----(5)---|

"Tasting the tears..."
E E E Q E E E +H. +Q E E E Q E E E +E H +Q.
|----------------|---------------|----------------|----------------|
|----------------|---------------|----------------|----------------|
|----------------|---------------|----------------|----------------|
|-----7----7-----|---------------|-----5-7------7-|-(7)-5----(5)---|
|---7---8----8-7-|-(7)------(7)--|---5---5--5---7-|-(7)-5----(5)---|
|-7-----7----7-7-|-(7)------(7)S=|=5-----5----5-5-|-(5)-5----(5)---|

12/8 10/8
    PM----------------------------------

E Q Q E H. E Q Q E H
||--------------------|----------------|
||o-------------------|----------------|
||--------------------|----------------|
||--4-4--4--4-4-------|-4-4--4--4-4----|
||o-4-4--4--4-4-------|-4-4--4--4-4----|
||--4-4--4--4-4-------|-4-4--4--4-4----|

"I've washed my hands..."
12/8 10/8
 -----------|

E Q Q E H. Q. Q H +E
|-------------------|-------------------||
|-------------------|------------------o||
|-4-4--4--4-4-------|-4----6--7----(7)--||
|-4-4--4--4-4-------|-4----6--7----(7)--||
|-2-2--2--2-2-------|-2----4--5----(5)-o||
|-------------------|-------------------||

15/8
Gtr III
E E E Q E E Q E E Q E E E E E Q E E Q E E Q E E
|--------0----------------2---------|----------------------------------|
|------3----3---------3---------3---|---------2-----------------3------|
|----2--------2---------2---------2-|-------4------4--------4------4---|
|--0------------0-------------------|-----4----------4--------4------4-|
|-----------------------------------|--2----------------2--------------|
|-----------------------------------|----------------------------------|

|
| Gtr V
| W +H +Q. H Q. +W
|-^2--------------(2)-------(2)-----|-----------0------(0)-------------|
|-^3--------------(3)-------(3)-----|----------------------------------|
|-^2--------------(2)-------(2)-----|----------------------------------|
|-^0--------------(0)-------(0)-----|-<7>------------------------------|
|-----------------------------------|--x-------------------------------|
|-----------------------------------|----------------------------------|

"Now - to be truly free.."
14/8
E E E Q E E Q E E E E E
|-----------------------------------------|
|----------9--------10-----------10-------|
|-------11----11-----------11-------11----|
|----11----------11-----------11-------11-|
|--9--------------------------------------|
|-----------------------------------------|

|
| W +H.
|-^9-------------------(9)----------------|
|-^7-------------------(7)----------------|
|-^6-------------------(6)----------------|
|-----------------------------------------|
|-----------------------------------------|
|-----------------------------------------|

15/8
E E E Q E E Q E E Q E E
|-------------------------------------------------|
|-----------10--------10------------12------------|
|--------12-----12------------12------------12----|
|-----12-----------12------------12------------12-|
|--10---------------------------------------------|
|-------------------------------------------------|

|
| W +H +Q.
|-^14--------------------(14)----------(14)-------|
|-^12--------------------(12)----------(12)-------|
|-^12--------------------(12)----------(12)-------|
|-------------------------------------------------|
|-------------------------------------------------|
|-------------------------------------------------|

E E E Q E E Q E E Q E E
|-----------------------------------|
|--------7------7---------8---------|
|------9----9---------9---------9---|
|----9--------9---------9---------9-|
|--7--------------------------------|
|-----------------------------------|

|
| W +H +Q.
|-^7--------------(7)-------(7)-----|
|-^8--------------(8)-------(8)-----|
|-^9--------------(9)-------(9)-----|
|-----------------------------------|
|-----------------------------------|
|-----------------------------------|

14/8
E E E Q E E Q E E Q E E W +H.
|---------------2---------0---------|-----------------|
|--------3------------3---------3---|-----------------|
|------4----4-----------4---------4-|-5--------(5)----|
|----4--------4---------------------|-5--------(5)----|
|--2--------------------------------|-3--------(3)----|
|-----------------------------------|-----------------|

|
| W +H +Q. W +H.
|-----------------------------------|-----------------|
|-^3--------------(3)-------(3)-----|-----------------|
|-^4--------------(4)-------(4)-----|-5--------(5)----|
|-^4--------------(4)-------(4)-----|-5--------(5)----|
|-^2--------------(2)-------(2)-----|-3--------(3)----|
|-----------------------------------|-----------------|

 A5A57/4
                                    Gtr I
W +H. W +H.
| | | |
Gtr V
E E E H Q E E E E E E E E H Q E E E E E
|------------0---------------|------------0---------------|
|-----2------------2-------2-|-----2------------2-------2-|
|-------4------------4---4---|-------4------------4---4---|
|---2------------------2-----|---2------------------2-----|
|-0--------------------------|-0--------------------------|
|----------------------------|----------------------------|

"Hear this voice..."
 A5F#5
  W            +H.             W            +H.
| | | |
E E E H Q E E E E E E E E H Q E E E E E
|------------0---------------|------------0---------------|
|-----2------------2-------2-|-----2------------2-------2-|
|-------4------------4---4---|-------4------------4---4---|
|---2------------------2-----|---4------------------4-----|
|-0--------------------------|----------------------------|
|----------------------------|-4--------------------------|

 Db5D5
  W            +H.             W            +H.
| | | |
E E E H Q E E E E E E E E H Q E E E E E
|------------0---------------|------------2---------------|
|-------0------------0-------|-----2------------2---------|
|-----8------------8-------8-|-------2------------2-----2-|
|---6--------------------6---|---4--------------------4---|
|-4--------------------4-----|-5--------------------5-----|
|----------------------------|----------------------------|

 A54/4
       W          +W          +W          +W
| | | |
W W W W
|----------|-----------|-----------|-------|
|----------|-----------|-----------|-------|
|----------|-----------|-----------|-------|
|----------|-----------|-----------|-------|
|----------|-----------|-----------|-------|
|----------|-----------|-----------|-------|

 4/4
  +W          +W          +W          +W
| | | |
Gtr VI - SOLO
>
W W W H. E. S
|-----------|-----------|-----------|-------------12--|
|-----------|-----------|-----------|-----------------|
|-----------|-----------|-----------|-----------------|
|-----------|-----------|-----------|-----------------|
|-----------|-----------|-----------|-----------------|
|-----------|-----------|-----------|-----------------|

T T ~~~~~~~~~~~~~~~~~~~~
S S S S H. +H. +E. S
|-24-12-22-12-20------------|-(20)-----------(20)---10-|
|---------------------------|--------------------------|
|---------------------------|--------------------------|
|---------------------------|--------------------------|
|---------------------------|--------------------------|
|---------------------------|--------------------------|

|
| Gtr III
|  PM---------------------------------------------------

| E E E E E E E E E E E E E E E E
|---------------------------|--------------------------|
|---------------------------|--------------------------|
|---------------------------|--------------------------|
|---------------------------|--------------------------|
|---------------------------|--------------------------|
|--7-----7-----7--7-7-7-7-7-|---7--7-7-7-7-7---7--7----|

T T ~~~~~~~~~~~~~~~~~~~~~~~~~~~~~~~~~~~
S S S S H. +H. +E. S
|-20-10-22-10-19------------|-(19)-----------(19)---8-|
|---------------------------|-------------------------|
|---------------------------|-------------------------|
|---------------------------|-------------------------|
|---------------------------|-------------------------|
|---------------------------|-------------------------|

|
|-------------------------------------------------|

| E E E E E E E E E E E E E E E E
|---------------------------|-------------------------|
|---------------------------|-------------------------|
|---------------------------|-------------------------|
|---------------------------|-------------------------|
|---------------------------|-------------------------|
|--5-----5-----5--5-5-5-5-5-|---5--5-5-5-5-5---5--5---|

T T T T ~~~~~~~~~~~~~~~
S S S S S S S S H +H. S S S S
|-20-8-19-8-15-8-19-8-12-------|-(12)--------------------17-|
|------------------------------|----------------------17----|
|------------------------------|----------------16-17-------|
|------------------------------|----------------------------|
|------------------------------|----------------------------|
|------------------------------|----------------------------|

|
|  PM--------------------------------------------------------

| E E E E E E E E E E E E E E E E
|------------------------------|----------------------------|
|------------------------------|----------------------------|
|------------------------------|----------------------------|
|------------------------------|----------------------------|
|------------------------------|----------------------------|
|--7----7----7----7----7-7-7-7-|---7--7-7-7-7-7--7-----7----|

~~~~~~~~~~~~~~~~~~
Q +E H +E H q q
|--------------17-------(17)-|-19-------20---22---|
|----------------------------|--x-----------------|
|-19b21---(19)---------------|--------------------|
|----------------------------|--------------------|
|----------------------------|--------------------|
|----------------------------|--------------------|

|
|-----------------------------------------------|

| E E E E E E E E E E E E E E E E
|----------------------------|--------------------|
|----------------------------|--------------------|
|----------------------------|--------------------|
|----------------------------|--------------------|
|----------------------------|--------------------|
|--5----5---5---5-5-5-5---5--|--5-5-5-5--5-5--5-5-|

~~~~~~~~ ~~~~~~~~~
E +H Q E +Q. +Q +Q S S
|-22b24r(22)b24=======22r==22-|-(22)---(22)b24--(22)--------|
|-----------------------------|-----------------------17-20-|
|-----------------------------|-----------------------------|
|-----------------------------|-----------------------------|
|-----------------------------|-----------------------------|
|-----------------------------|-----------------------------|

|
| E E E Q E E E +W
|-----------------------------|-----------------------------|
|-----------------------------|-----------------------------|
|-----------------------------|-----------------------------|
|----------------3-5--------5-|--(5)------------------------|
|---------3------------3------|-----------------------------|
|--3---------------------3----|-----------------------------|

~~~~~~~~~~~~~~~~
Q. Q +Q T T S Q. T T S E. E. E
|-----------------------------|----------------19--20--22b24-|
|-19--------------------------|-------------17---------------|
|---------16--(16)------------|-16----16-17------------------|
|--------------------------14-|------------------------------|
|--------------------14h15----|------------------------------|
|-----------------------------|------------------------------|

|
| E E E Q E E E +W
|-----------------------------|------------------------------|
|-----------------------------|------------------------------|
|-----------------------------|------------------------------|
|-------2--5----------5-------|-(5)--------------------------|
|-----2---------2-------------|------------------------------|
|--2---------------2----------|------------------------------|

12/8 10/8
+Q +Q. +Q E H W Q
|-(22)---(22)r===(22)-----------|-----------------|
|-------------------------------|-----------------|
|-------------------------------|-----------------|
|-------------------------------|-----------------|
|-------------------------------|-----------------|
|-------------------------------|-----------------|

|
| Gtrs I, II
|   PM---------------------------------------------

| E Q Q E H. E Q Q E H
|-------------------------------|-----------------|
|-------------------------------|-----------------|
|-------------------------------|-----------------|
|---0--0------0----0--0---------|-0-0--0--0-0-----|
|---0--0------0----0--0---------|-0-0--0--0-0-----|
|---0--0------0----0--0---------|-0-0--0--0-0-----|

"I hate these hands..."
12/8 9/8
W H W E
|--------------------|-----------------|
|--------------------|-----------------|
|--------------------|-----------------|
|--------------------|-----------------|
|--------------------|-----------------|
|--------------------|-----------------|

|
|-----------|

| E Q Q E H. Q. Q H
|--------------------|-----------------|
|--------------------|-----------------|
|--------------------|-----------------|
|-5-5--5--5-5--------|-5----7--8-------|
|-5-5--5--5-5--------|-5----7--8-------|
|-5-5--5--5-5--------|-5----7--8-------|

12/8 10/8 12/8 9/8
Gtrs I, II
  PM---------------------------------------------|

E Q Q E H. E Q Q E H E Q Q E H. Q. Q H
|-------------------|----------------|-------------------|--------------|
|-------------------|----------------|-------------------|--------------|
|-------------------|----------------|-------------------|--------------|
|-0-0--0--0-0-------|-0-0--0--0-0----|-5-5--5--5-5-------|-5----7--8----|
|-0-0--0--0-0-------|-0-0--0--0-0----|-5-5--5--5-5-------|-5----7--8----|
|-0-0--0--0-0-------|-0-0--0--0-0----|-5-5--5--5-5-------|-5----7--8----|

15/8
Gtr III
E E E Q E E W E E E Q E E Q E E Q E E
|-------------------------------|---------------------------------|
|-------------------------------|---------------------------------|
|-------------------------------|---------------------------------|
|-----8-10------10--------------|-----5-7------7---------5--------|
|---8-------8-------------------|---5------5---------5------5-----|
|-8-----------8-----------------|-5----------5---------5-------5--|

|
| Gtr V
| W +H. +E W +H. +E
|-------------------------------|-6--------------(6)----------(6)-|
|-------------------------------|-8--------------(8)----------(8)-|
|-------------------------------|---------------------------------|
|-8----------------(8)------(8)-|---------------------------------|
|-8----------------(8)------(8)-|---------------------------------|
|-8----------------(8)------(8)-|---------------------------------|

"I was always on my mind..."
14/8
E E E Q E E E E E E E E E
|-----------------------------------|
|-----------------------------------|
|-----------------------------------|
|-------0-2------2s==3------3-------|
|-----0------0----------0-----0-----|
|---0----------0----------0-----0---|

|
| W +H.
|-^10--------------(10)-------------|
|-^10--------------(10)-------------|
|-^10--------------(10)-------------|
|-----------------------------------|
|-----------------------------------|
|-----------------------------------|

15/8
E E E Q E E Q E E Q E E E E E Q E E Q E E Q E E
|-----------------------------------|----------------------------------|
|-----------------------------------|--------3------3---------4--------|
|-----------------------------------|------5----5---------5------5-----|
|--------1-3---------3-------5------|----5--------5---------5-------5--|
|------1------1---------1-------1---|--3-------------------------------|
|---1-------------1-------1-------1-|----------------------------------|

|
| H. +E Q Q H W +H. +E
|-^10-----------(10)--------10------|-^8--------------(8)----------(8)-|
|-^-8------------(8)----8-----------|-^8--------------(8)----------(8)-|
|-^-8------------(8)-8--------------|-^8--------------(8)----------(8)-|
|-----------------------------------|----------------------------------|
|-----------------------------------|----------------------------------|
|-----------------------------------|----------------------------------|

14/8
E E E Q E E E E E E Q E E W +H.
|--------------------------------|-----------------|
|--------------------------------|-----------------|
|--------------------------------|-----------------|
|------5-7------7s=8------8------|-6--------(6)----|
|----5------5---------5------5---|-6--------(6)----|
|--5----------5---------5------5-|-6--------(6)----|

|
| W +E H E E W +H.
|-^6--------------(6)--------6s8-|-----------------|
|-^8--------------(8)------------|-9--------(9)----|
|-^7--------------(7)-0----------|-8--------(8)----|
|--------------------------------|-6--------(6)----|
|--------------------------------|-----------------|
|--------------------------------|-----------------|

 4/4
    Gtr I
~~~~~~~~~~~~~~~~~~~~~
E E E H E +W
||-----------------------------|---------------------------|
||o------------------------/13-|-(13)----------------------|
||--------------10---------/12-|-(12)----------------------|
||--------------10---------/10-|-(10)----------------------|
||o-/10----12-0----------------|---------------------------|
||-----------------------------|---------------------------|

|
| Gtr II
| ~~ ~~~
| Q. Q Q E +E Q E E E E E
||-----------------------------|---------------------------|
||o--12b13r=========12b13r=====|======12b13r=======10------|
||--------------10-----------9-|--(9)-----------------12---|
||-----------------------------|-------------12-10-------9-|
||o----------------------------|---------------------------|
||-----------------------------|---------------------------|

~~~~~~~~~~~~~~~~~~~~~~~~~~
E E E H E +E Q E +H 4x
|----------------------|--------------------------||
|-------------------12-|-(12)-10---13-(13)-------o||
|----------10-------10-|-(10)-10---10-(10)--------||
|-/10-12---10-------10-|-(10)-10---10-(10)--------||
|--------0-------------|-------------------------o||
|----------------------|--------------------------||

|
| ~~ ~~~~~~~~~ ~
| E E E Q E E E +E E E E E E Q 4x
|----------------------|--------------------------||
|----------------------|-------------------------o||
|---9-10-9----------12-|-(12)------10---------9---||
|----------10--9h10----|------10p9------9--10-----||
|----------------------|-------------------------o||
|----------------------|--------------------------||

4/4 - Fade out
~~~~~~~~~~~~~~~~~~~~~
 EEEBEEEEE
                                  H]                                                                                                                                                     
||-----------------------------|-----------------------------|
||o------------------------/13-|-(13)-----------/10-13-12----|
||--------------10---------/12-|-(12)---------------------12-|
||--------------10---------/10-|-(10)------------------------|
||o-/10----12-0----------------|-----------------------------|
||-----------------------------|-----------------------------|

|
| ~~ ~~~
| Q. Q Q E +E Q E E E E E
||-----------------------------|-----------------------------|
||o--12b13r=========12b13r=====|======12b13r========10-------|
||--------------10-----------9-|--(9)------------------12----|
||-----------------------------|-------------12--10--------9-|
||o----------------------------|-----------------------------|
||-----------------------------|-----------------------------|

~~ ~~~~~~~~~~ ~
E E E Q E E E +H E E Q 4x
|-------------------------|------------------------||
|-------------------------|-----------------------o||
|----------------------9--|--(9)-------------------||
|-\10-12-10-----------10--|-(10)-------------------||
|-----------12--10-12-(8)-|--(8)---------\7--7-7--o||
|-------------------------|------------------------||

|
| ~~ ~~~~~~~~~~ ~
| E E E Q E E E +E E E E E E Q 4x
|-------------------------|------------------------||
|-------------------------|-----------------------o||
|---9-10--9-----------12--|-(12)------10-------9---||
|-----------10---9h10-----|------10p9-----9-10-----||
|-------------------------|-----------------------o||
|-------------------------|------------------------||

Duration Legend
---------------
W - whole; H - half; Q - quarter; E - 8th; S - 16th; T - 32nd; X - 64th; a - acciaccatura

+ - note tied to previous; . - note dotted; .. - note double dotted
Uncapitalized letters represent notes that are staccato (1/2 duration)
Irregular groupings are notated above the duration line
Duration letters will always appear directly above the note/fret number it represents the
duration for. Duration letters with no fret number below them represent rests. Multi-
bar rests are notated in the form Wxn, where n is the number of bars to rest for. Low
melody durations appear below the staff
Tablature Legend
----------------

h - hammer-on
p - pull-off
b - bend
pb - pre-bend
r - bend release (if no number after the r, then release immediately)
/\ - slide into or out of (from/to "nowhere")
s - legato slide
S - shift slide
- natural harmonic
(n) - artificial harmonic
n(n) - tapped harmonic
~ - vibrato
tr - trill
T - tap
TP - trem. picking
PM - palm muting
\n/ - tremolo bar dip; n = amount to dip
\n - tremolo bar down
n/ - tremolo bar up
/n\ - tremolo bar inverted dip
= - hold bend; also acts as connecting device for hammers/pulls
<> - volume swell (louder/softer)
x - on rhythm slash represents muted slash
o - on rhythm slash represents single note slash
Misc Legend
-----------

| - bar
|| - double bar
||o - repeat start
o|| - repeat end
*| - double bar (ending)
: - bar (freetime)
$ - Segno
& - Coda
Tempo markers - = BPM(8/16=s8/s16), where s8 = swing 8ths, s16 = swing 16ths**************************************************************************************


A5 B D5 Db5 E Em F#5 Fsus2 G5
variations - click chord images
Transpose chords:
Tuning:
Cool service:
View: Size:
A  A  A
Rating:
Layout:
  • Currently 0/5 Stars.
  • 1
  • 2
  • 3
  • 4
  • 5
 
Accuracy:
  • Currently 1/5 Stars.
  • 1
  • 2
  • 3
  • 4
  • 5
 
click stars to rate
Chordie recommends:
Check out these online guitar lessons
Songbook:
Login to add this song to your songbook
Support the artist
Preview/buy this song
MSN Music
Why this non-profit ad?

 
login to add comments/video/corrections