eToCache5 = ""; ?> 5 Minutes Alone by Pantera - guitar chords, guitar tabs and lyrics - chordie

5 Minutes Alone

Pantera

-----------------------------------------------------------------------------

                        -------------------------

   |---5/7----

   |---5/7----

                    ---------------------------------

|-------|-----------------------|-------------------------|

|-------|-----------------------|-------------------------|

|-------|-----------------------|-------------------------|

|-------|-----------------------|-------------------------|

|-------|-5/7-2-x-5-7-2---x-x-2-|-5/7-2-x-8\5-2---x-x-x-2-|

|-------|-3/5-0-x-3/5-0---x-x-0-|-3/5-0-x-6\3-0---x-x-x-0-|

|-----------------------|-----------------------|-------------------------|

|-----------------------|-----------------------|-------------------------|

|-----------------------|-----------------------|-------------------------|

|-----------------------|-----------------------|-------------------------|

|-5/7-2-x-5/7-2---x-x-2-|-5/7-2-x-8\5-2-x-x-x-2-|-5/7-2-x-5/7-2---x-x-x-2-|

|-3/5-0-x-3/5-0---x-x-0-|-3/5-0-x-6\3-0-x-x-x-0-|-3/5-0-x-3/5-0---x-x-x-0-|

|-------------------------|-------------------------|-----------------------|

|-------------------------|-------------------------|-----------------------|

|-------------------------|-------------------------|-----------------------|

|-------------------------|-------------------------|-----------------------|

|-5/7-2-x-8\5-2---x-x-x-2-|-5/7-2-x-5/7-2---x-x-x-2-|-5/7-2-x-8\5-2-x-x-x-x-|

|-3/5-0-x-6\3-0---x-x-x-0-|-3/5-0-x-3/5-0---x-x-x-0-|-3/5-0-x-6\3-0-x-x-x-x-|

 fill 1 -------------------------|

|---------------------------------||

|---------------------------------||

|---------------------------------||

|-----9---------------------------||

|-/9----9-8-7\5---5-----4-----2---||

|---------------7---5\3---3\1---1-||

||------------------------|-----|-----------------------|------||

||------------------------|-----|-----------------------|------||

||o-----------------------|-----|-----------------------|-----o||

||o---2-2-2-2-2-2---2-2-2-|--%--|---1-1-1-1-1-1---1-1-1-|--%--o||

||----2-2-2-2-2-2---2-2-2-|-----|---1-1-1-1-1-1---1-1-1-|------||

||----0-0-0-0-0-0---0-0-0-|-----|---0-0-0-0-0-0---0-0-0-|------||

|-------------------|-----|-----|-----------------||

|-------------------|-----|-----|-----------------||

|-------------------|-----|-----|-----------------||

|------5---------7b-|--%--|--%--|------5----------||

|---/8---6----------|-----|-----|---/8---6--------||

|-0----------4br----|-----|-----|-0----------4br\-||

|-------------------|-----|-----|-----------------||

|-------------------|-----|-----|-----------------||

|-------------------|-----|-----|-----------------||

|------5---------7b-|--%--|--%--|------5----------||

|---/8---6----------|-----|-----|---/8---6--------||

|-0----------4br----|-----|-----|-0----------4b---||

|-----------------------|-----|-----------|---------------------------|

|-----------------------|-----|-----------|---------------------------|

|-----------------------|-----|-----------|---------------------------|

|---2-2-2-2-2-2---2-2-2-|--%--|-----------|---------------------------|

|---2-2-2-2-2-2---2-2-2-|-----|-----------|-5/7-2-x-x-5/7-2---x-x-x---|

|---0-0-0-0-0-0---0-0-0-|-----|-/7~-2~-1~-|-3/5-0-x-x-3/5-0---x-x-x-3/|

|-----------|---------------------------|-----------|

|-----------|---------------------------|-----------|

|-----------|---------------------------|-----------|

|-----------|---------------------------|-----------|

|-----------|-5/7-2-x-x-5/7-2---x-x-x---|-----------|

|-/7~-6~-1~-|-3/5-0-x-x-3/5-0---x-x-x-3/|-/7~-6~-5~-|

|---------------------------|-----------||

|---------------------------|-----------||

|---------------------------|-----------||

|---------------------------|-----------||

|-5/7-2-x-x-5/7-2---x-x-x---|-----------||

|-3/5-0-x-x-3/5-0---x-x-x-3/|-/7~-2~-1~-||

|-------------------|-----|-----|-----------------||

|-------------------|-----|-----|-----------------||

|-------------------|-----|-----|-----------------||

|------5---------7b-|--%--|--%--|------5----------||

|---/8---6----------|-----|-----|---/8---6--------||

|-0----------4br----|-----|-----|-0----------4br\-||

|-------------------|-----|-----|-----------------||

|-------------------|-----|-----|-----------------||

|-------------------|-----|-----|-----------------||

|------5---------7b-|--%--|--%--|------5----------||

|---/8---6----------|-----|-----|---/8---6--------||

|-0----------4br----|-----|-----|-0----------4brb-||

||----------------------------------|----------------------------------||

||----------------------------------|----------------------------------||

||o---------------------------------|---------------------------------o||

||o-----9---------------------------|----9----------------------------o||

||---/9---9-8-7\5---5---------4-----|-/9---9-8-7\5---5-----4-----2-----||

||----------------7---7-6-5\3---3\1-|--------------7---5\3---3\1---1---||

|--------------------------------|-----|-----|

|--------------------------------|-----|-----|

|--------------------------------|-----|-----|

|--------------------------------|--%--|--%--|

|----5---------5-----4-----3-----|-----|-----|

|-/7---7-6-5\4---4\3---3\2---2\1-|-----|-----|

|--------------------------------||-------------------------|

|--------------------------------||-------------------------|

|--------------------------------||-------------------------|

|--------------------------------||-------------------------|

|----5---------5-7\6-6\5-5\4-4\3-||-5/7-2-x-5/7-2---x-x-x-2-|

|-/7---7-6-5\4---5\4-4\3-3\2-2\1-||-3/5-0-x-3/5-0---x-x-x-0-|

              harm. ----------------|

|------------------------------------|-------------------------|

|------------------------------------|-------------------------|

|-------------4-4-4-4-4-4-4-4-4--2.6-|-------------------------|

|-------------4-4-4-4-4-4-4-4-4--2.6-|-------------------------|

|-5/7-2-x-8\5------------------------|-5/7-2-x-5/7-2---x-x-x-2-|

|-3/5-0-x-6\3------------------------|-3/5-0-x-3/5-0---x-x-x-0-|

|-----------------------|-------||---------------------------------|

|-----------------------|-------||-5brp3-5---3---5brp3-5---5-5-3-0-|

|-----------------------|-------||-5brp3-5---3---5brp3-5---5-5-3-0-|

|-----------------------|-------||---------------------------------|

|-5/7-2-x-8\5-2-x-x-x-x-|-------||---------------------------------|

|-3/5-0-x-6\3-0-x-x-x-x-|-0---r-||---------------------------------|

|-----------------------6-----|-----------------------9-----|

|-5brp3-5---3----6---6b---6b~-|-8brp6-8---6----9---9b---9b~-|

|-5brp3-5---3-5b---5----------|-8brp6-8---6-8b---8----------|

|-----------------------------|-----------------------------|

|-----------------------------|-----------------------------|

|-----------------------------|-----------------------------|

|---------------------------------|

|-8brp6-8---6/--------------------|

|-8brp6-8---6/--------------------|

|---------------------------------|

|--------------x-x-x-x-x-x-x------|

|--------------x-x-x-x-x-x-x-/17\-|

|             trem. pick -----------------------------------------------

|          A.H.-------------------|        1.5            r     1.5 hold-|

|------------19-------------------|-(19)----------|-(19)---------------|

|---------------------------------|---------------|--------------------|

|---------------------------------|---------------|--------------------|

|---------------------------------|---------------|--------------------|

|---------------------------------|---------------|--------------------|

|---------------------------------|---------------|--------------------|

------------------|

|-(19)------------|-19-------19b-19-18-17----17------|

|-----------------|-19--------------------20----20br-|

|-----------------|----------------------------------|

|-----------------|----------------------------------|

|-----------------|----------------------------------|

|-----------------|----------------------------------|

|-----------------|----------------------------------|

|-----------------|----------------------------------|

|-----------------|----------------------------------|

|-----------------|----------------------------------|

|-----------------|----------------------------------|

|-----------------|----------x/x\x-/x-\x-/x-\x-/x-\x-|

 s+s+s
                            pick scs]raps]ess]s]s]s]
                          trem pick -------|
   1/2   vib.             A.H.-------------|
|-------------------------19------|-(19)----------------------------|
|---b---17------------\-----------|---------------------------------|
|---------------------------------|---------------------------------|
|---------------------------------|---------------------------------|
|---------------------------------|---------------------------------|
|---------------------------------|---------------------------------|

+ e+s s+q + e + e q + q Q H |
| | |
| 1/2 1/2 | 1/2 1/2 |
|---------------------------------|---------------------------------|
|-5brp3-5---3---5brp3-5---5-5-3-0-|-8brp6-8---6---8brp6-8---8-8-6---|
|-5brp3-5---3---5brp3-5---5-5-3-0-|-8brp6-8---6---8brp6-8---8-8-6---|
|---------------------------------|---------------------------------|
|---------------------------------|---------------------------------|
|---------------------------------|---------------------------------|

e s s S s S s+s s s S s s s s e s s S s S s+s s s S s s s S
1/2 1/2 1/2 f
|---------------------------------------|-------------------------||
|-10brp8-10---8---10brp8-10---10-10-8---|-12brp10-12--10-13b------||
|-10brp8-10---8---10brp8-10---10-10-8---|-------------------------||
|---------------------------------------|-------------------------||
|---------------------------------------|-------------------------||
|---------------------------------------|---------------------13\-||

e s s S s S e s s S s s s S | e s s+s s e+q q ||
| ||
| A.H.(both) ||
                                        |-----------19b-----------||
                                        |-----------17b-----------||
                                        |-------------------------||
                                        |-------------------------||
                                        |-------------------------||
                                        |-------------------------||

Q. e + h
bend top note 1.5, lower
note 1/2
4x
||--------------------|------------------------||----------------------------|
||--------------------|------------------------||----------------------------|
||o-------------------|-----------------------o||----------------------------|
||o-------3-----------|---------3-------------o||----------------------------|
||--3-----1-3-2-----4-|-4-2-----1-2-4-2---3/5--||-2-4-2---3/5-2-4-2---3/5/13-|
||--1-------1-0-----2-|-2-0-------0-2-0---1/3--||-0-2-0---1/3-0-2-0---1/3----|

e E E e s s E E e s s E E e e s s+s s+e e s s+s s+e e s s+s s+s+s
2/4 4/4 chorus
|-----------------||
|-----------------||    play riff 1 2x
|-----------------||
|-x-x-x-x-x-x-x-x-||
|-x-x-x-x-x-x-x-x-||
|-x-x-x-x-x-x-x-x-||

 ssssssss
    let open E string ring -------------------|                  2x
||----------------|------------|--------------|-------------------||
||----------------|--------6---|--------------|-------------------||
||o--4------7--/9-|-4------3---|-4------7--/9-|-5---x-x-5-x-x-5--o||
||o--2------5--/7-|-2------3---|-2------5--/7-|-3---x-x-3-x-x-3--o||
||---2------5--/7-|-2----------|-2------5--/7-|-3---x-x-3-x-x-3---||
||---0------------|-0----------|-0------------|-1---x-x-1-x-x-1---||

|| h + e. s+e+e | h + e. s+q | h + e. s+e+e | q.. s s e s s e. ||
|| | | | ||
||----------------|------------|--------------|-------------------||
||----------------|------------|--------------|-------------------||
||o---------------|------------|--------------|------------------o||
||o--2------5--/7-|-2-----/8---|-2------5--/7-|-3---x-x-3-x-x-3--o||
||----------------|------------|--------------|-------------------||
||---0------3--/5-|-0-----/6---|-0------3--/5-|-1---x-x-1-x-x-1---||

h + e. s+e+e h + e. s+q h + e. s+e+e q.. s s e s s e.
4x
||------------------------------|------------------------------||
||------------------------------|------------------------------||
||o-----------------------------|-----------------------------o||
||o-----------------------------|-----------------------------o||
||--5/7-2-----5/7-2-------------|-5/7-2-----8\5-2--------------||
||--3/5-0-0-0-3/5-0-0-0-0-0-0-0-|-3/5-0-0-0-6\3-0-0-0-0-0-0-0--||

s+s e s s s+s e s s s s s s s+s e s s s+s e s s s s s s
repeat & fade
||----------------------------|----------------------------||
||----------------------------|----------------------------||
||o---------------------------|---------------------------o||
||o---------------------------|---------------------------o||
||--5/7-2-----5/7-2-----8\5-2-|-----5/7-2-----8\5-2-5-7-8--||
||--3/5-0-0-0-3/5-0-0-0-6\3-0-|-0-0-3/5-0-0-0-6\3-0-3-5-6--||

s+s e s s s+s e s s s+s e s s s+s e s s s+s e s s e
5 MINUTES ALONE - PANTERA BASS
              -------------------------------
|-------|-----------------------|-------------------------|
|-------|-----------------------|-------------------------|
|-------|-----------------------|-------------------------|
|-------|-3h5-0-x-3h5-0---x-x-x-|-3h5-0-x-6-3-0---x-x-x-x-|

S H s+s e e s+s e E s e s s+s e e s s e S s s e s
riff 1
|-----------------------|-----------------------|-------------------------|
|-----------------------|-----------------------|-------------------------|
|-----------------------|-----------------------|-------------------------|
|-3h5-0-x-3h5-0---x-x-x-|-3h5-0-x-6-3-0-x-x-x-x-|-3h5-0-x-3-5-0---x-x-x-x-|

s+s e e s+s e E s e s s+s e e s s e e s e s s+s e e s s e S s s e s
end riff 1
|-------------------------|-------------------------|-----------------------|
|-------------------------|-------------------------|-----------------------|
|-------------------------|-------------------------|-----------------------|
|-3h5-0-x-6-3-0---x-x-x-x-|-3h5-0-x-3h5-0---x-x-x-x-|-3h5-0-x-6-3-0-x-x-x-x-|

s+s e e s s e S s s e s s+s e e s+s e S s s e s s+s e e s s e e s e s
 fill 1 -------------------------|
|---------------------------------||
|-----9---------------------------||
|-/9----9-8-7\5---5-----4-----2---||
|---------------7---5\3---3\1---1-||

e s s s s+s s s s+s s s+s s s
verse 1
riff 2 end riff 2
|-----------------------|-----|-----|-----|-----|-----|-----|-----|
|-----------------------|-----|-----|-----|-----|-----|-----|-----|
|-----------------------|--%--|--%--|--%--|--%--|--%--|--%--|--%--|
|---0-0-0-0-0-0---0-0-0-|-----|-----|-----|-----|-----|-----|-----|

E e e e e s s S s s s
riff 3 end riff 3
f f 2
|-------------------|-----|-----|-----------------||
|------5---------7b-|-----|-----|------5----------||
|---/8---6----------|--%--|--%--|---/8---6--------||
|-0----------4br----|-----|-----|-0----------4b---||

e e e e+s e. q e e e e+s e.+q
pre-chorus
riff 4
|-----------------------|-----|-----------|---------------------------|
|-----------------------|-----|-----------|---------------------------|
|-----------------------|--%--|-----------|---------------------------|
|---0-0-0-0-0-0---0-0-0-|-----|-/7~-2~-1~-|-3h5-0-x-x-3h5-0---x-x-x-x-|

E e e e e s s S s s s h q q s+s e s s s+s e S s s e s
|-----------|---------------------------|-----------|
|-----------|---------------------------|-----------|
|-----------|---------------------------|-----------|
|-/7~-6~-1~-|-3h5-0-x-x-3h5-0---x-x-x-x-|-/7~-6~-5~-|

h q q s+s e s s s+s e S s s e s h q q
end riff 4
|---------------------------|-----------||
|---------------------------|-----------||
|---------------------------|-----------||
|-3h5-0-x-x-3h5-0---x-x-x-x-|-/7~-2~-1~-||

s+s e s s s+s e S s s e s h q q
chorus
play riff 1 2x
play fill 1 1x
verse 2
play riff 2 1x
play riff 3 1x
pre-chorus
play riff 4 1x
chorus
play riff 1 2x
2x
||----------------------------------|----------------------------------||
||o-----9---------------------------|----9----------------------------o||
||o--/9---9-8-7\5---5---------4-----|-/9---9-8-7\5---5-----4-----2----o||
||----------------7---7-6-5\3---3\1-|--------------7---5\3---3\1---1---||

e s s s s+s s s s s s+s s s+s e s s s s+s s s s+s s s+s s s
|--------------------------------|-----|-----|
|--------------------------------|-----|-----|
|----5---------5-----4-----3-----|--%--|--%--|
|-/7---7-6-5\4---4\3---3\2---2\1-|-----|-----|

e s s s s+s s s+s s s+s s s+s
|--------------------------------||-------------------------|
|--------------------------------||-------------------------|
|----5---------5-----------------||-------------------------|
|-/7---7-6-5\4---5\4-4\3-3\2-2\1-||-3h5-0-x-3h5-0---x-x-x-x-|

e s s s s+s s s+s s+s s+s s+s s+s e e s+s e S s s e s
              harm. ----------------|
|-------------4-4-4-4-4-4-4-4-4--2.6-|-------------------------|
|-------------4-4-4-4-4-4-4-4-4--2.6-|-------------------------|
|------------------------------------|-------------------------|
|-3h5-0-x-6-3------------------------|-3h5-0-x-3h5-0---x-x-x-x-|

s+s e e s s s s s s s s s s s e s+s e e s+s e S s s e s
 1/21/2
|-----------------------|-------||-------------------------------|
|-----------------------|-------||---------------------------3h5-|
|-----------------------|-------||-3br-1-3---1-----3br-1-3/5-----|
|-3h5-0-x-6-3-0-x-x-x-x-|-0-----||-------------3-----------------|

s+s e e s s e e s e s w e s s+s e s+s e s s+s s+s
 1/21/21/21/2
|-----------------------------|-------------------------------|
|---------------------------3-|---------------------------6h8-|
|-3br-1-3---1-----3br-1-3/5---|-6br-4-6---4-----6br-4-6/8-----|
|-------------3---------------|-------------6-----------------|

e s s+s e s+s e s s+s e e s s+s e s+s e s s+s s+s
 1/21/21/2
|-------------------------------|-------------------------------|
|-------------------------------|-------------------------------|
|-6br-4-6---4-x-x-x-x-x-x-x-x-x-|---------------------------5h7-|
|-------------x-x-x-x-x-x-x-x-x-|-5br-3-5---3-0---5br-3-5/7-----|

e s s+s e s s s s s s s s s e s s+s e s+s e s s+s s+s
 1/21/21/2
|--------------------------------|-------------------------------|
|--------------------------------|-------------------------------|
|----------------5/7-5-----------|---------------------------5h7-|
|-5br-3-5---3-0--------7-6-5-3-0-|-5br-3-5---3-0---5br-3-5/7-----|

e s s+s e s s s s s s e s e s s+s e s+s e s s+s s+s
 1/21/21/2
|-------------------------------|-------------------------------|
|-------------------------------|---------------------------3h5-|
|-------------x-x-x-x-x-x-x-x-x-|-3br-1-3---1-----3br-1-3/5-----|
|-5br-3-5---3-x-x-x-x-x-x-x-x-x-|-------------3-----------------|

e s s+s e s s s s s s s s s e s s+s e s+s e s s+s s+s
 1/21/21/21/2
|-------------------------------|---------------------------------|
|---------------------------6h8-|----------------------------8h10-|
|-6br-4-6---4-----6br-4-6/8-----|-8br-6-8---6-----8br-6-8/10------|
|-------------6-----------------|-------------8-------------------|

e s s+s e s+s e s s+s s+s e s s+s e s+s e s s+s s+s
 1/2
|------------------------||
|------------------------||
|-10br-8-10--8-----------||
|--------------10~-------||

e s s+s s e+h
4x
||--------------------|------------------------||-------------------------|
||o-------------------|-----------------------o||-------------------------|
||o-------1-----------|---------1-------------o||-------------------------|
||--1-------1-0-----2-|-2-0-------0-2-0---1-3--||-0-2-0---1-3-0-2-0---1-3-|

e E E e s s E E e s s E E e e s s+s s e e s s+s s e e s s+s s e
2/4 4/4 chorus
|-----------------||
|-----------------||    play riff 1 2x
|-x-x-x-x-x-x-x-x-||
|-x-x-x-x-x-x-x-x-||

 ssssssss
||--------------------------|-------------------------|
||o-------------------------|-------------------------|
||o-------------------------|-------------------------|
||--3h5-0-0-0-3h5-0-0-0-3-5-|-3h5-0-0-0-3h5-0-0-0-6-6-|

s+s e s s s+s e s s e e s+s e s s s+s e s s e e
2x
|-------------------------|-----------------------------||
|-------------------------|----------------------------o||
|-------------------------|-------------------0-1-2h3--o||
|-3h5-0-0-0-3h5-0-0-0-3-5-|-1-1-1-1-1-1-1-1-1-----------||

s+s e s s s+s e s s e e e s s e e s s s s s s s+s
4x
||------------------------------|------------------------------||
||o-----------------------------|-----------------------------o||
||o---------------------7-7-7-7-|---------------------7-7-7-7-o||
||--3h5-0-0-0-3h5-0-0-0---------|-3h5-0-0-0-6-3-0-0-0----------||

s+s e s s s+s e s s s s s s s+s e s s s s e s s s s s s
repeat & fade
||----------------------------|----------------------------||
||o---------------------------|---------------------------o||
||o---------------------------|---------------------------o||
||--3h5-0-0-0-3h5-0-0-0-6-3-0-|-0-0-3h5-0-0-0-6-3-0-3-5-6--||

s+s e s s s+s e s s s s e s s s+s e s s s s e s s e
-------------------------------------------------------------------

Archived by: -=UMS=- http://members.tripod.com/~ums02/pantera


variations - click chord images
Transpose chords:
Tuning:
Cool service:
View: Size:
A  A  A
Rating:
Layout:
  • Currently 0/5 Stars.
  • 1
  • 2
  • 3
  • 4
  • 5
 
Accuracy:
  • Currently 2.5/5 Stars.
  • 1
  • 2
  • 3
  • 4
  • 5
 
click stars to rate
Chordie recommends:
Check out JamPlay.com for online video guitar lessons
Songbook:
Login to add this song to your songbook
Support the artist
Preview/buy this song
MSN Music
Why this non-profit ad?

 
login to add comments/video/corrections