Chordie logo

Slaughtered   Pantera



PANTERA - SLAUGHTERED
(Far Beyond Driven, 1994)

Key
= after note = vibrato
^ after note = heavy vibrato 
\ = slide down
/ = slide up
+ = tap
h = hammer
p = pull
n = natural harmonic
s = pinching harmonic (squeal)
* = tremolo pick
t = trill
b = bend
|-3-| = triplet

n number above the tab = play the first part then the first finishing part
			 play the first part a second time and then play the second finishing part
			 etc.

Tune Down 1/4 Step

Riff 1

E ------------------------------------
B ------------------------------------
G ----------6-------------------------
D ----------6--5--3-------3--------3--
A ----------4--5--3-------3--------3--
E -00-00-00----3--1-00-00-1--00-00-1--

Riff 1A

E ---------------------------------
B ---------------------------------
G ----------6----------------------
D ----------6--5--3-------8---8--8-
A ----------4--5--3-------8---8--8-
E -00-00-00----3--1-00-00-6---6--6-

Riff 2

E --------------------------------
B --------------------------------
G --------------------------------
D -2-2-2--------------------------
A -2-2-2-4/9\5--5/10\6--6/11\7----
E -0-0-0-2/7\3--3/8 \4--4/9 \5--1-

Riff 3

E ------------------------------------
B ------------------------------------
G ----------9-------------------------
D ----------9--8--7-------5--------7--
A -00-00-00-7--8--7-------5--------7--
E -------------6--5-55-55-3--55-55-5--

Riff 4

E -----------------------------------------------
B -----------------------------------------------
G -----------------------------------------------
D -------------------------55--55--55--55--55--5-
A -------------------------44--44--44--44--44--4-
E -00-00-00-00-00-00-00-00-33--33--33--33--33--3-

Riff 5 

E -----------------------------
B -----------------------------
G -----------------------------
D -2----------------------8--3-
A -2----------------------8--3-
E -0---------------------06--1-

Riff 5A

E --------------------------------------------------
B --------------------------------------------------
G --------------------------------------------------
D -2-2-2-2-2-2-2-2-2-2-2-2-2-2-2-2-2-2-2-2-2--8-8-8-
A -2-2-2-2-2-2-2-2-2-2-2-2-2-2-2-2-2-2-2-2-2--8-8-8-
E -0-0-0-0-0-0-0-0-0-0-0-0-0-0-0-0-0-0-0-0-0-06-6-6-

Riff 5B

E ------------------------------------------------------------------------------------------
B ------------------------------------------------------------------------------------------
G -------------------------------------------------------------------------------------4--4-
D -3---4---2---3-----------------------------------3---4---2---3-----------------------4--4-
A -----------------3---4---2---3---0---1---2---3-------------------3---4---2---3---0---2--2-
E ---0---0---0---0---0---0---0---0---0---0---0---0---0---0---0---0---0---0---0---0---0-2--2-

Riff 5C


E -------------------------------------------------------------------------------------------------------
B -------------------------------------------------------------------------------------------------------
G -------------------------------------------------------------------------------------4--4---------4--4-
D -3---4---2---3-----------------------------------3---4---2---3-----------------------4--4---------4--4-
A -----------------3---4---2---3---0---1---2---3-------------------3---4---2---3---0---2--2---------2--2-
E ---0---0---0---0---0---0---0---0---0---0---0---0---0---0---0---0---0---0---0---0---0-2--2-0-00-00-2--2-

Order

Riff 1 x 6
Riff 2 x 4
Riff 1 x 4
Riff 3 x 4
Riff 2 x 4
Riff 1 x 3
Riff 1A x 1
Riff 1 x 4
Riff 3 x 4
Riff 2 x 4
Riff 4 x 4
Riff 5 x 2
Riff 5A x 4
Riff 5B x 2
Riff 5A x 2
Riff 5B x 1
Riff 5C x 1
Riff 2 x 8
Riff 4 x 4



Important: The song above is NOT stored on the Chordie server. The original song is hosted at www.xguitar.com. Chordie works as a search engine and provides on-the-fly formatting. Chordie does not index songs against artists/composers will. To remove this song please click here.

This song is displayed as text-only. Transposing and tuning is only available for chordpro-songs.

Login - add to songbook

Rating click stars to rate

Layout
Accuracy

SHARE PAGE  



You need to log in to post comments