Guitar Tabs, Chords and Lyrics

Scars   Papa Roach

Papa Roach – Scars

Tabbed by: Cedric Hooge (

I tabbed this song as soon as I hadmy hands on the cd, because I really love it.
It’s my first tab and it’s only so that the more experienced tabbers can tab the
details. It sounds right so this tab also comes in handy for the people who only want
to play easy songs. Be easy on me.

e  |-2---------2---------4---------2-|
B  |-2---------2---------4---------2-|
G  |-4---------3---------6---------3-|
D  |-4---------4---------6---------4-|
A  |-2---------4---------4---------4-|
E  |-----------2-------------------2-|

e  |-2---------2---------4----0----2-|
B  |-2---------2---------4----0----2-|
G  |-4---------3---------6----1----3-|
D  |-4---------4---------6----2----4-|
A  |-2---------4---------4----2----4-|
E  |-----------2--------------0----2-|

e  |-4-------------------0---------2-|
B  |-4-------------------0---------2-|
G  |-4---------4---------1---------3-|
D  |-6---------4---------2---------4-|
A  |-6---------6---------2---------4-|

Important: The song above is NOT stored on the Chordie server. The original song is hosted at Chordie works as a search engine and provides on-the-fly formatting. Chordie does not index songs against artists/composers will. To remove this song please click here.

This song is displayed as text-only. Transposing and tuning is only available for chordpro-songs.

Login - add to songbook

Rating click stars to rate



You need to log in to post comments

psr9893 (report)

you dork