eToCache5 = ""; ?> Broken Home by Papa Roach - guitar chords, guitar tabs and lyrics - chordie

Broken Home

Papa Roach


----------------------------------------------------------------------------------------------
SONG: Broken Home BAND: Papa Roach ALBUM: Infest TRANSCRIBED BY: Ryan Marsa (Megabril52@aol.com) DATE: Unknown
----------------------------------------------------------------------------------------------
TUNING: drop d (D-A-D-G-B-E)
* = Echo
RIFF A: Intro/Main Riff
|------------------------------------------------| |------------------------------------------------| |------------------------------------------------| |-0-4--4-4-4--0-6--6-6-6--0-7--7-7-7--0-6--6-6-6-| |-0-4--4-4-4--0-4--4-4-4--0-4--4-4-4--0-4--4-4-4-| |-0-4--4-4-4--0-4--4-4-4--0-4--4-4-4--0-4--4-4-4-| * * * * * * * * * * * *
|--------------------| |--------------------| |--------------------| |-0-7--7-7-7-7-7-7-7-| <------- ends on this |-0-4--4-4-4-4-4-4-4-| |-0-4--4-4-4-4-4-4-4-| * * * * * * *
RIFF B: Intro 2
|----------------------------------| |----------------------------------| |----------------------------------| |-0-4-4--0-6-6-6-6-7-7-7-7-9-9-9-9-| |-0-4-4--0-4-4-4-4-5-5-5-5-7-7-7-7-| |-0-4-4--0-6-6-6-6-7-7-7-7-9-9-9-9-|
RIFF C: Verse
|------------------------------| |------------------------------| |------6-6/7--7-7/9------------| <-------- play first time only |-4-4----------------0-2-2-2-2-| |-4-4--4-4/5--5-5/7--0-2-2-2-2-| |-4-4----------------0-2-2-2-2-|
|------------------------------------------------------------| |------------------------------------------------------------| |------6-6/7--7-7/9------------------6-6/7--7-7/9------------| |-7-7----------------0-2-2-2-2--6-6----------------0-2-2-2-2-| |-4-4--4-4/5--5-5/7--0-2-2-2-2--4-4--4-4/5--5-5/7--0-2-2-2-2-| |-4-4----------------0-2-2-2-2--4-4----------------0-2-2-2-2-|
RIFF D: Chorus
|------------------------------------------------------| |------------------------------------------------------| |---------------------------------7-7-7-7-6-6-6-6-4--2-| |-0-4-4--0-4-4--0-4-4--0-4-4-4-4-----------------------| |-0-4-4--0-4-4--0-4-4--0-4-4-4-4--5-5-5-5-4-4-4-4-2--0-| |-0-4-4--0-4-4--0-4-4--0-4-4-4-4-----------------------|

|-----------------------------------------------------------------| |-----------------------------------------------------------------| |---------------------------------7-7-7-7-6-6-6-6-4-4-4-4-2-2-2-2-| |-0-4-4--0-4-4--0-4-4--0-4-4-4-4----------------------------------| |-0-4-4--0-4-4--0-4-4--0-4-4-4-4--5-5-5-5-4-4-4-4-2-2-2-2-0-0-0-0-| |-0-4-4--0-4-4--0-4-4--0-4-4-4-4----------------------------------|
RIFF E:
|-------------------------------------------------| |-------------------------------------------------| |-----------------7-7-7-7-6-6-6-6-4-4-4-4-2-2-2-2-| |-4-4-4-4-4-4-4-4---------------------------------| |-4-4-4-4-4-4-4-4-5-5-5-5-4-4-4-4-2-2-2-2-0-0-0-0-| |-4-4-4-4-4-4-4-4---------------------------------|
RIFF F:
|---------------------------------------------------------------------| |---------------------------------------------------------------------| |---------------------------------------------------------------------| |4-4--4-4-2-2-7-7--7-7-2-2-6-6--6-6-2-2-7-7--7-7-2-2-0-4-4-4-4-4-4-4-4| |4-4--4-4-2-2-4-4--4-4-2-2-4-4--4-4-2-2-4-4--4-4-2-2-0-4-4-4-4-4-4-4-4| |4-4--4-4-2-2-4-4--4-4-2-2-4-4--4-4-2-2-4-4--4-4-2-2-0-4-4-4-4-4-4-4-4| * * * * * * * RIFF G:
|-------------------------------------------| |-----------------------| |-------------------------------------------| |-----------------------| |-------------------------------------------| |-----------------------| |0-4-4-0-4--0-6-6-0-6--0-7-7-0-7--0-6-6-0-6-| |-X////////////////////-| |0-4-4-0-4--0-4-4-0-4--0-4-4-0-4--0-4-4-0-4-| |-----------------------| |0-4-4-0-4--0-4-4-0-4--0-4-4-0-4--0-4-4-0-4-| |-----------------------| pick scratch to the right over pick ups RIFF H:
|--------------------| |--------------------| |--------------------| |-0-4-4--6-6-7-7-9-9-| |-0-4-4--4-4-5-5-7-7-| |-0-4-4--6-6-7-7-9-9-|
End on Riff B
RIFF I:
|------------------------------------| |------------------------------------| |------------------------------------| |-4-4-4-4--4-4-4-4--4-4-4-4--4-4-4-4-| |-4-4-4-4--4-4-4-4--4-4-4-4--4-4-4-4-| |-4-4-4-4--4-4-4-4--4-4-4-4--4-4-4-4-|
RIFF J:
|---------------------------------------------------------------------| |---------------------------------------------------------------------| |---------------------------------------------------------------------| |-4--4-4-4-4-4-4-4-4--4-4-4-4-4-4-4-4--4-4-4-4-4-4-4-4--4-4-4-4-4-4-4-| |-4--4-4-4-4-4-4-4-4--4-4-4-4-4-4-4-4--4-4-4-4-4-4-4-4--4-4-4-4-4-4-4-| |-4--4-4-4-4-4-4-4-4--4-4-4-4-4-4-4-4--4-4-4-4-4-4-4-4--4-4-4-4-4-4-4-| * * * * * * * * * * * * * * * * * * * * * * * * * * *














variations - click chord images
Transpose chords:
Tuning:
Cool service:
View: Size:
A  A  A
Rating:
Layout:
  • Currently 0/5 Stars.
  • 1
  • 2
  • 3
  • 4
  • 5
 
Accuracy:
  • Currently 2.9/5 Stars.
  • 1
  • 2
  • 3
  • 4
  • 5
 
click stars to rate
Chordie recommends:
Learn to play guitar with video-based, online guitar lessons at JamPlay.com
Songbook:
Login to add this song to your songbook
Support the artist
Preview/buy this song
MSN Music
Why this non-profit ad?

 
login to add comments/video/corrections