Chordie logo

Time and Time Again   Papa Roach



Author/Artist: Papa Roach
Title: Time and Time Again
Album: lovehatetragedy
Transcribed by: Ben Knight of BrokenH.com
Email: kayohrn@aol.com

Drop-C (CGCFAD)

Last Updated: 08/20/02

--------------------------------------|---------------------------------------
--------------------------------------|---------------------------------------
--------------------------------------|---------------------------------------
-5-5-5-7-7-7-8-8-8-101010-121212-15---|-15-15-12-15-15-12-15-15-12-15-15-12---
-5-5-5-7-7-7-8-8-8-101010-121212-15---|-15-15-12-15-15-12-15-15-12-15-15-12---
-5-5-5-7-7-7-8-8-8-101010-121212-15---|-15-15-12-15-15-12-15-15-12-15-15-12---
 Heavy Intro                            Transitions to Verse

----------|-------------------------------------------------------------------
----------|-------------------------------------------------------------------
----------|-------------------------------------------------------------------
-15-15-12-|-------------------------------------------------------------------
-15-15-12-|-------------------------------------------------------------------
-15-15-12-|-8-8-5-5-8-8-5-5-8-8-5-5-8-8-5-5-8-8-5-5-8-8-5-5-8-8-5-5-8-8-5-5---
            Verse w/ Wah (Weird picking rhythm!)

------------------------------------------------------------------------------
------------------------------------------------------------------------------
------------------------------------------------------------------------------
------------------------------------------------------------------------------
---------5-5-8-8-5-5-8-8-5-5-8-8-5-5-8-8-5-5-8-8-5-5-8-8-5-5-8-8-5-5-8-8------
-8-8-5-5----------------------------------------------------------------------


------------|-----------------------------------------------------------------
------------|-----------------------------------------------------------------
------------|-----------------------------------------------------------------
---7---8----|-9------12-xx16\\--5--7-------9------12-xx16\\--5--9---------------
-x-7-x-8----|-9------12-xx16\\--5--7-------9------12-xx16\\--5--7---------------
-x-7-x-8----|-9------12-xx16\\--5--7-------9------12-xx16\\--5--7---------------
 Pre Chorus  Chorus (TIME AND TIME AGAIN YOU'LL THINK ABOUT YOURSELF...)

------------------------------------------------------------------------------
------------------------------------------------------------------------------
------------------------------------------------------------------------------
-12\\---8-8-8-8--8-8-8-8--8-8-8-8-8-8-8-8--8-8-8-8--12\\--1-1-1-1--1-1-1-1------
-12\\---5-5-5-5--5-5-5-5--5-5-5-5-8-8-8-8--8-8-8-8--12\\--1-1-1-1--1-1-1-1------
-12\\---5-5-5-5--5-5-5-5--5-5-5-5-8-8-8-8--8-8-8-8--12\\--1-1-1-1--1-1-1-1------
 Bridge (x2)

------------------------------------|-----------------------------------------
------------------------------------|-----------------------------------------
------------------------------------|-----------------------------------------
-1-1-1-1-3-3-3-3--3-3-3-3--3-3-3-3--|-3-3-3-3-3-3-3-3-------------------------
-1-1-1-1-3-3-3-3--3-3-3-3--3-3-3-3--|-3-3-3-3-3-3-3-3-------------------------
-1-1-1-1-3-3-3-3--3-3-3-3--3-3-3-3--|-3-3-3-3-3-3-3-3-------------------------
                                      After 2nd Time (Palm Mute)



Copyright (c) www.BrokenH.com 2002.



Important: The song above is NOT stored on the Chordie server. The original song is hosted at www.xguitar.com. Chordie works as a search engine and provides on-the-fly formatting. Chordie does not index songs against artists/composers will. To remove this song please click here.

This song is displayed as text-only. Transposing and tuning is only available for chordpro-songs.

Login - add to songbook

Rating click stars to rate

Layout
Accuracy

SHARE PAGE  

You need to log in to post comments