""; ?> Gods' Dice by Pearl Jam - guitar chords, guitar tabs and lyrics - chordie

Gods' Dice

Pearl Jam




-|-------------------------------------------------------------------------|--

-|-------------------------------------------------------------------------|--

-|-------------------------------------------------------------------------|--

-|----------7---7--10--10---5--5---9----9-----7---7-7--7-7-7-7--7-7--7-7-7-|--

-|----------7---7--10--10---5--5---9----9-----7---7-7--7-7-7-7--7-7--7-7-7-|--

-|----------5---5---8---8---3--3---7----7-----5---5-5--5-5-5-5--5-5--5-5-5-|--

-|----------------------------------------------------------------------|-----

-|----------------------------------------------------------------------|-----

-|--6---7-----/9-----7----9----7----7---7--6----------------------------|-----

-|----------------------------------------------------------------------|-----

-|----------------------------------------------------------------------|-----

-|----------------------------------------------------------------------|-----

-|----------------------------------------------------------------------|-----

-|----------------------------------------------------------------------|-----

-|----------------------------------------------------------------------|-----

-|--7----7----10----10----5----5----9---9--7---7-7--7-7-7-7--7-7--7-7-7-|-----

-|--7----7----10----10----5----5----9---9--7---7-7--7-7-7-7--7-7--7-7-7-|-----

-|--5----5-----8-----8----3----3----7---7--5---5-5--5-5-5-5--5-5--5-5-5-|-----

 G2
-|-----------------------------------------------------------------------|----
-|-----------------------------------------------------------------------|----
-|-----------------------------------------------------------------------|----
-|-----3---3--8-----8----7--7-10-10---5--5---9--9--7---7-7--7-7-7-7--7-7-|----
-|-----3---3--8-----8----7--7-10-10---5--5---9--9--7---7-7--7-7-7-7--7-7-|----
-|-----1---1--6-----6----5--5--8--8---3--3---7--7--5---5-5--5-5-5-5--5-5-|----

G1+G2 In the cards your destiny your san - ity in tow
-|---------------------------------------------------------------|------------
-|---------------------------------------------------------------|------------
-|----------5--5-5-5-5-5-5-5-5-5-5-5-5--7------------------------|------------
-|-----3-3--5--5-5-5-5-5-5-5-5-5-5-5-5--7--7----7-7----7--7---7--|------------
-|-----3-3--3--3-3-3-3-3-3-3-3-3-3-3-3--5--7----7-7----7--7---7--|------------
-|-----1-1---------------------------------5----5-5----5--5---5--|------------

G1+G2 Designate my luck
-|-------------------------------------------|--------------------------------
-|-------------------------------------------|--------------------------------
-|----------5--5-5-5-5-5-5-5-5-5-5-5-5--7----|--------------------------------
-|-----3-3--5--5-5-5-5-5-5-5-5-5-5-5-5--7----|--------------------------------
-|-----3-3--3--3-3-3-3-3-3-3-3-3-3-3-3--5----|--------------------------------
-|-----1-1-----------------------------------|--------------------------------

G1+G2 Resignate this
-|-------------------------------------------------------------------|--------
-|-------------------------------------------------------------------|--------
-|--6--7--/9---7--9-----7--7-----7--6---7----------------------------|--------
-|------------------------------------------------------------7------|--------
-|-------------------------------------------------------------------|--------
-|-------------------------------------------------------------------|--------

G1 Po-wer has no roots to guide no role
-|---------------------------------------------5---------------------|--------
-|-------------------------------------------------------------------|--------
-|---------5---5---------------------------7b9---9r7p5-7b9r7p5---5---|--------
-|--7--7---5---5--5-----5--9-----9--7---7----------------------7-----|--------
-|--7--7---3---3--5-----5--9-----9--7---7----------------------------|--------
-|--5--5----------3-----3--7-----7--5---5----------------------------|--------

G2 hold--|
-|---------------------------------------------------------------|------------
-|---------------------------------------------------------------|------------
-|--6----7--/9--7--9--7--/7-----7--6--6------------9--7--6---6---|------------
-|---------------------------------------------------------------|------------
-|---------------------------------------------------------------|------------
-|---------------------------------------------------------------|------------

G1 Trust me rusted minds refuse to go
-|---------------------------------------------------------------|------------
-|---------------------------------------------------------------|------------
-|---------------------------------------------------------------|------------
-|--7-----7--10-10--5---5---9----9--7---7-7--7-7-7-7--7-7--7-7-7-|------------
-|--7-----7--10-10--5---5---9----9--7---7-7--7-7-7-7--7-7--7-7-7-|------------
-|--5-----5---8--8--3---3---7----7--5---5-5--5-5-5-5--5-5--5-5-5-|------------

 G2
-|-------------------------------------------------------------------------|--
-|-------------------------------------------------------------------------|--
-|-------------------------------------------------------------------------|--
-|-------3---3--8----8----7--7---10--10--5--5--9---9--7--7-7--7-7-7-7--7-7-|--
-|-------3---3--8----8----7--7---10--10--5--5--9---9--7--7-7--7-7-7-7--7-7-|--
-|-------1---1--6----6----5--5----8---8--3--3--7---7--5--5-5--5-5-5-5--5-5-|--

G1+G2 Unwillingness it's meaningless to walk away in vain
-|----------------------------------------------------------------|-----------
-|----------------------------------------------------------------|-----------
-|----------5--5-5-5-5-5-5-5-5-5-5-5-5--7-------------------------|-----------
-|-----3-3--5--5-5-5-5-5-5-5-5-5-5-5-5--7--7----7-7----7---7---7--|-----------
-|-----3-3--3--3-3-3-3-3-3-3-3-3-3-3-3--5--7----7-7----7---7---7--|-----------
-|-----1-1---------------------------------5----5-5----5---5---5--|-----------

G1+G2 Designate my will
-|-------------------------------------------------------------|--------------
-|-------------------------------------------------------------|--------------
-|-------5--5-5-5-5-5-5-5-5-5-5-5-5--7--6--7--/9--7--6--7------|--------------
-|--3-3--5--5-5-5-5-5-5-5-5-5-5-5-5--7-------------------------|--------------
-|--3-3--3--3-3-3-3-3-3-3-3-3-3-3-3--5-------------------------|--------------
-|--1-1--------------------------------------------------------|--------------

G1 Designate my fill
-|-------------------------------------------------------------|--------------
-|-------------------------------------------------------------|--------------
-|-------5--5-5-5-5-5-5-5-5-5-5-5-5--7-------------------------|--------------
-|--3-3--5--5-5-5-5-5-5-5-5-5-5-5-5--7--7----7-7----7---7---7--|--------------
-|--3-3--3--3-3-3-3-3-3-3-3-3-3-3-3--5--7----7-7----7---7---7--|--------------
-|--1-1---------------------------------5----5-5----5---5---5--|--------------

 G2
-|-----------------------------------------|----------------------------------
-|-----------------------------------------|----------------------------------
-|----------5--5-5-5-5-5-5-5-5-5-5-5-5--7--|----------------------------------
-|-----3-3--5--5-5-5-5-5-5-5-5-5-5-5-5--7--|----------------------------------
-|-----3-3--3--3-3-3-3-3-3-3-3-3-3-3-3--5--|----------------------------------
-|-----1-1---------------------------------|----------------------------------

G1+G2 Resignate my
-|----------------------------------------------------------------------|-----
-|----------------------------------------------------------------------|-----
-|----------------------------------------------------------------------|-----
-|--7----7--10--10---5---5----9---9----7---7-7---7-7-7-7---7-7---7-7-7--|-----
-|--7----7--10--10---5---5----9---9----7---7-7---7-7-7-7---7-7---7-7-7--|-----
-|--5----5---8---8---3---3----7---7----5---5-5---5-5-5-5---5-5---5-5-5--|-----

G1 Will is crashing synapses flashing slow
-|----------------------------------------------------------------------|-----
-|----------------------------------------------------------------------|-----
-|-------------------------------------------7b9r7p5-5-7p5-5------------|-----
-|--7----7--10--10---5---5----9---9----7------------7-----7-7p5-7p5-5---|-----
-|--7----7--10--10---5---5----9---9----7---------------------------7----|-----
-|--5----5---8---8---3---3----7---7----5--------------------------------|-----

 G2
-|----------------------------------------------------------------------|-----
-|----------------------------------------------------------------------|-----
-|--6----7---/9-----7--9--7--/7-----7------6---6---------9--7--6--------|-----
-|----------------------------------------------------------------------|-----
-|----------------------------------------------------------------------|-----
-|----------------------------------------------------------------------|-----

G1 Days like frame by frame where do they go ah yeah why
-|----------------------------------------------------------------------|-----
-|----------------------------------------------------------------------|-----
-|----------------------------------------------------------------------|-----
-|--7----7---10----10--5--5--9-------9-----7---7-7--7-7-7-7--7-7--7-7-7-|-----
-|--7----7---10----10--5--5--9-------9-----7---7-7--7-7-7-7--7-7--7-7-7-|-----
-|--5----5----8-----8--3--3--7-------7-----5---5-5--5-5-5-5--5-5--5-5-5-|-----

 G2
-|--------------------------------------------------------------------------|-
-|--------------------------------------------------------------------------|-
-|--------------------------------------------------------------------------|-
-|--3-----3--8---8--7---7--10---10---5--5--9-9-7---7-7--7-7-7-7--7-7--7-7-7-|-
-|--3-----3--8---8--7---7--10---10---5--5--9-9-7---7-7--7-7-7-7--7-7--7-7-7-|-
-|--1-----1--6---6--5---5---8----8---3--3--7-7-5---5-5--5-5-5-5--5-5--5-5-5-|-

G1+G2 Fight forget it can't I spend it after I go
-|------------------------------------------------|---------------------------
-|------------------------------------------------|---------------------------
-|------------------------------------------------|---------------------------
-|------------------------------------------------|---------------------------
-|------------------------------------------------|---------------------------
-|-0---------2----3-------------------------------|---------------------------

G1 Roll them high
-|------------------------------------------------|---------------------------
-|------------------------------------------------|---------------------------
-|----------------------7-7-7-7-6--6--7-7-7-7-6---|---------------------------
-|----------------------7-7-7-7-7--7--7-7-7-7-7---|---------------------------
-|------------------------------------------------|---------------------------
-|-0---------2----3-------------------------------|---------------------------

 G2
-|-----------------------------------------------|----------------------------
-|-----------------------------------------------|----------------------------
-|-----------------------------------------------|----------------------------
-|-----------------------------------------------|----------------------------
-|-----------------------------------------------|----------------------------
-|--0-----2-----3--------------------------------|----------------------------

G1 Throw them again
-|-----------------------------------------------|----------------------------
-|-----------------------------------------------|----------------------------
-|---------------------7-7-7-7-6--6--7-7-7-7-6---|----------------------------
-|---------------------7-7-7-7-7--7--7-7-7-7-7---|----------------------------
-|-----------------------------------------------|----------------------------
-|--0-----2-----3--------------------------------|----------------------------

 G2
-|------------------------------|---------------------------------------------
-|------------------------------|---------------------------------------------
-|------------------------------|---------------------------------------------
-|------------------------------|---------------------------------------------
-|------------------------------|---------------------------------------------
-|--0---2-----3-----------------|---------------------------------------------

G1 All Gods' dice and it's
-|------------------------------|---------------------------------------------
-|------------------------------|---------------------------------------------
-|-----------------------x\-----|---------------------------------------------
-|-----------------------x\-----|---------------------------------------------
-|-----------------------x\-----|---------------------------------------------
-|------------------------------|---------------------------------------------

 G2
-|------------------------------------------------------------------|---------
-|------------------------------------------------------------------|---------
-|------------5--5--------------------------------------------------|---------
-|-----7--7---5--5---5----5----9--9----7---7-7--7-7-7-7--7-7--7-7-7-|---------
-|-----7--7---3--3---5----5----9--9----7---7-7--7-7-7-7--7-7--7-7-7-|---------
-|-----5--5----------3----3----7--7----5---5-5--5-5-5-5--5-5--5-5-5-|---------

G1+G2 Monkey driven call this living ha
-|--------------------------------------------------------------------|-------
-|--------------------------------------------------------------------|-------
-|--6---7---/9----7------/12-7--7---7----6----6--------9--7--6--------|-------
-|--------------------------------------------------------------------|-------
-|--------------------------------------------------------------------|-------
-|--------------------------------------------------------------------|-------

G1 Too much thought it's o-verwrought a hole
-|--------------------------------------------------------------------|-------
-|--------------------------------------------------------------------|-------
-|--------------------------------------------------5-----------------|-------
-|--7---7---10----10------5-5--9----9----7---7-7--------7p5---5-------|-------
-|--7---7---10----10------5-5--9----9----7---7-7------------7---------|-------
-|--5---5----8-----8------3-3--7----7----5---5-5----------------------|-------

 G2
-|-----------------------------------------------------------------------|----
-|-----------------------------------------------------------------------|----
-|-----------------------------------------------------------------------|----
-|-----3---3---8-----8------7----7---10----10---5----5----9--9-9--9-9-9--|----
-|-----3---3---8-----8------7----7---10----10---5----5----9--9-9--9-9-9--|----
-|-----1---1---6-----6------5----5----8-----8---3----3----7--7-7--7-7-7--|----

G1+G2 Minding yours what's mine not yours will finish us off
-|----------------------------------------------------------------|-----------
-|----------------------------------------------------------------|-----------
-|----------7--7-7-7-7-7-7-7-7-7-7-7-7--9-------------------------|-----------
-|-----5-5--7--7-7-7-7-7-7-7-7-7-7-7-7--9--9---9-9---9-9--9---9---|-----------
-|-----5-5--5--5-5-5-5-5-5-5-5-5-5-5-5--7--9---9-9---9-9--9---9---|-----------
-|-----3-3---------------------------------7---7-7---7-7--7---7---|-----------

G1+G2 Designate my life
-|-------------------------------------------------------------|--------------
-|-------------------------------------------------------------|--------------
-|-------7--7-7-7-7-7-7-7-7-7-7-7-7--9-------------------------|--------------
-|--5-5--7--7-7-7-7-7-7-7-7-7-7-7-7--9--9---9-9---9-9--9---9---|--------------
-|--5-5--5--5-5-5-5-5-5-5-5-5-5-5-5--7--9---9-9---9-9--9---9---|--------------
-|--3-3---------------------------------7---7-7---7-7--7---7---|--------------

G1 Designate my view
-|-------------------------------------------------------------|--------------
-|--------------------------------------0*vvvvvvvvvvvvvvvvvvv--|--------------
-|-------7--7-7-7-7-7-7-7-7-7-7-7-7--9-------------------------|--------------
-|--5-5--7--7-7-7-7-7-7-7-7-7-7-7-7--9-------------------------|--------------
-|--5-5--5--5-5-5-5-5-5-5-5-5-5-5-5--7-------------------------|--------------
-|--3-3--------------------------------------------------------|--------------

G2 *wide vibrato with trem bar
-|-------------------------------------------------------------|--------------
-|-------------------------------------------------------------|--------------
-|-------7--7-7-7-7-7-7-7-7-7-7-7-7--9-------------------------|--------------
-|--5-5--7--7-7-7-7-7-7-7-7-7-7-7-7--9--9---9-9---9-9--9---9---|--------------
-|--5-5--5--5-5-5-5-5-5-5-5-5-5-5-5--7--9---9-9---9-9--9---9---|--------------
-|--3-3---------------------------------7---7-7---7-7--7---7---|--------------

G1 Resignate my will my will my will I will
-|-------12b13---12b13-12b13-12b13--12b13----------------------|--------------
-|-------------------------------------------------------------|--------------
-|-------------------------------------------------------------|--------------
-|-------------------------------------------------------------|--------------
-|-------------------------------------------------------------|--------------
-|-------------------------------------------------------------|--------------

 G2
-|--------------------------------------------------------------||------------
-|--------------------------------------------------------------||------------
-|----------7----7--7--7--7--7--7--7--7--7--7--7--7----9--------||------------
-|--5--5----7----7--7--7--7--7--7--7--7--7--7--7--7----9---9-\--||------------
-|--5--5----5----5--5--5--5--5--5--5--5--5--5--5--5----7---9-\--||------------
-|--3--3---------------------------------------------------7-\--||------------

G1 Resignate my god
-|-----12b14-12b14-12b14r12-10-12-12b14r12p10--10-12p10----10\--||------------
-|-------------------------------------------12--------12--10\--||------------
-|--------------------------------------------------------------||------------
-|--------------------------------------------------------------||------------
-|--------------------------------------------------------------||------------
-|--------------------------------------------------------------||------------

 G2

G2
variations - click chord images
Transpose chords:
Tuning:
Cool service:
View: Size:
A  A  A
Rating:
Layout:
  • Currently 3.5/5 Stars.
  • 1
  • 2
  • 3
  • 4
  • 5
 
Accuracy:
  • Currently 3.8/5 Stars.
  • 1
  • 2
  • 3
  • 4
  • 5
 
click stars to rate
Chordie recommends:
Learn to play songs at Jamplay.com with video guitar lessons
Songbook:
Login to add this song to your songbook
Support the artist
Preview/buy this song
MSN Music
Why this non-profit ad?

 
login to add comments/video/corrections