Guitar Tabs, Chords and Lyrics


Habit   Pearl Jam










Author/Artist: Pearl Jam
Title: Habit
Album: No Code
Transcribed by: Evan Cowan
Email: ecowan@uclink4.berkeley.edu

Updated by: Guido Löbbert 

Dropped-D tuning

-|------------------------|-------------------------|-------------------------
-|------------------------|-------------------------|-------------------------
-|------------------------|-------------------------|-------------------------
-|-7--0--7--6-6-6-6-6-6-0-|-7--0--7--6-6-6-6-5-3-0--|-------------------------
-|-7--0--7--6-6-6-6-6-6-0-|-7--0--7--6-6-6-6-5-3-0--|-------------------------
-|-7--0--7--6-6-6-6-6-6-0-|-7--0--7--6-6-6-6-5-3-0--|-------------------------
  Intro, G1                                       4x                          

-|------------------------|-------------------------|-------------------------
-|------------------------|-------------------------|-------------------------
-|-2-----2----------------|-2-----2-----------------|-------------------------
-|-2--0--2--6-6-6-6-6-6-0-|-2--0--2--6-6-6-6-5-3-0--|-------------------------
-|-0--0--0--6-6-6-6-6-6-0-|-0--0--0--6-6-6-6-5-3-0--|-------------------------
-|----0-----6-6-6-6-6-6-0-|----0-----6-6-6-6-5-3-0--|-------------------------
  G2 plays like this                              4x                          

-|------------------------|-------------------------|-----------------------|-
-|------------------------|-------------------------|-----------------------|-
-|-8----------------------|-------8-8-------8-8-----|---------8-8-------8-8-|-
-|-8-8-8-8--8-8-8-8-8-8-8-|-8-8-8-8-8-8-8-8-8-8-8-8-|-8-8-8-8-8-8-8-8-8-8-8-|-
-|-6-6-6-6--6-6-6-6-6-6-6-|-6-6-6-6-6-6-6-6-6-6-6-6-|-6-6-6-6-6-6-6-6-6-6-6-|-
-|------------------------|-------------------------|-----------------------|-
  Bridge,  G1                                                                 

-|-------------------------------------|--------------------------------------
-|-------------------------------------|--------------------------------------
-|-------------8-8-------8-8-8-8-8-8-8-|--------------------------------------
-|-8-8-8-8-8-8-8-8-8-8-8-8-8-8-8-8-8-8-|--------------------------------------
-|-6-6-6-6-6-6-6-6-6-6-6-6-6-6-6-6-6-6-|--------------------------------------
-|-------------------------------------|--------------------------------------
                                                                              

-|----------------------------|---------------------------|-------------------
-|----------------------------|---------------------------|-------------------
-|-8-8-8-8-8-8--8-8-8---------|-8-8-8-8-8-8-8-8-8---------|-------------------
-|-8-8-8-8-8-8--8-8-8-7-7-7-8-|-8-8-8-8-8-8-8-8-8-7-7-7-8-|-------------------
-|-5-6-6-6-6-6--6-6-6---------|-6-6-6-6-6-6-6-6-6---------|-------------------
-|----------------------------|---------------------------|-------------------
  Bridge, G2                                            2x                    

-|----------------------------|------------------------|--------------------|-
-|----------------------------|------------------------|--------------------|-
-|-8-8-8-8-8-8--8-8-8-8-8-8-0-|-2-----2----------------|-2---2--------------|-
-|-8-8-8-8-8-8--8-8-8-8-8-8-0-|-2--0--2--6-6-6-6-6-6-0-|-2-0-2-6-6-6-6-6-5-0|-
-|-6-6-6-6-6-6--6-6-6-6-6-6-0-|-0--0--0--6-6-6-6-6-6-0-|-0-0-0-6-6-6-6-6-5-0|-
-|----------------------------|----0-----6-6-6-6-6-6-0-|---0---6-6-6-6-6-5-0|-
                                                                          4x  

-|---------------|----------------------|-------------------------0---------|-
-|---------------|----------------------|-------------------------0---------|-
-|---------------|----------------------|----2---------------2----1---------|-
-|---------------|-3--2--0--7-9-7-9-7-0-|-3--2-0--3----0--3--2-0--2---------|-
-|---------------|-3--2--0--7-9-7-9-7-0-|-3--0----3-------3--0-0--2---------|-
-|---------------|-3--2--0--7-9-7-9-7-0-|-3-------3-/7----3-------2---------|-
 Bridge same as B4 chorus             8x  G1                   reverse strum  

-|---------------------------------|----------------------|-------------------
-|---------------------------------|----------------------|-------------------
-|-----2---------2---------2-------|----------------------|-------------------
-|-3---2-0---3---2-0---3---2-0---2-|-3--2--0--7-9-7-9-7-0-|-------------------
-|-3---0-0---3---0-0---3---0-0---2-|-3--2--0--7-9-7-9-7-0-|-------------------
-|-3-----0---3-----0---3-----0---2-|-3--2--0--7-9-7-9-7-0-|-------------------
  G2                                 Chorus            8x                     

-|--------------------------|----------------------|--------------------------
-|-----------------------3--|----------------------|--------------------------
-|-----------------------2--|----------------------|--------------------------
-|-3---2---/5---4---3----0--|----------------------|--------------------------
-|-3---2---/5---4---3----0--|----------------------|--------------------------
-|-3---2---/5---4---3----0--|----------------------|--------------------------
          (G2 slides up)      (feedback, scrapes)                             

-|-12-------|--------------|--------------------------------------------------
-|----13----|--7---7---7---|--------------------------------------------------
-|-------14-|--7---7---7---|--------------------------------------------------
-|----------|--7---7---7---|--------------------------------------------------
-|----------|--5---5---5---|--------------------------------------------------
-|----------|--0---0---0---|--------------------------------------------------
 G1, 20x     strum till end                                                   

-|---------10----------------------------|-------10-------------10-------|----
-|-13b15vv----13-------------------------|-13b15----13-10-13b15----13-10-|----
-|---------------12-10-10----------------|-------------------------------|----
-|------------------------12-10-10-10-9\-|-------------------------------|----
-|---------------------------------------|-------------------------------|----
-|---------------------------------------|-------------------------------|----
  G2, solo(heavy wah)                                                         

-|-------10-------------10-------13b15-15r13-10------10------------|----------
-|-13b15----13-10-13b15----13-10----------------13b-----13---------|----------
-|---------------------------------------------------------12-10---|----------
-|---------------------------------------------------------------0-|----------
-|-----------------------------------------------------------------|----------
-|-----------------------------------------------------------------|----------
                                                                              

-|-----------------------------------------------------|----------------------
-|-----------------------------------------------------|----------------------
-|-----------------------------10-10-10-10-12-12-12-12-|----------------------
-|-12-10-10-12--12-10-12-12-12-10-10-10-10-12-12-12-12-|----------------------
-|-12-10-10-12--12-10-12-12-12-------------------------|----------------------
-|-----------------------------------------------------|----------------------
                                                                              

-|-------------10-------------------------------------10----------|-----------
-|----------10-------------------------------------10-------------|-----------
-|----12b14-------12-10----------------------12b14-------10-------|-----------
-|-12-------------------12-10-10-12-10-10-12----------------12-12-|-----------
-|-12-------------------12-10-10-12-10-10-12----------------------|-----------
-|----------------------------------------------------------------|-----------
                                                                              

-|-------------------------10-------10-------------------------|--------------
-|----------------------10----13b15----10----------------------|--------------
-|----------------12b14----------------------------------------|--------------
-|-10-12-12-10-12-------------------------10-12-12-12-10-10-12-|--------------
-|-10-12-12-10-12-------------------------10-12-12-12-10-10-12-|--------------
-|-------------------------------------------------------------|--------------
                                                                              

-|----------10-13b15-13-10-------------------|-------------------------|------
-|-------10----------------------------------|-13-13-13-13-15-15-15----|------
-|-12b14-------------------------------------|-------------------------|------
-|-------------------------10-12-12-10-12-12-|-------------------------|------
-|-------------------------10-12-12-10-12-12-|-------------------------|------
-|-------------------------------------------|-------------------------|------
                                                                              

-|----13-15b17--r15-15-15--13-------------|-----------------------------------
-|-15-------------------------15-13-15-13-|-----------------------------------
-|----------------------------------------|-----------------------------------
-|----------------------------------------|-----------------------------------
-|----------------------------------------|-----------------------------------
-|----------------------------------------|-----------------------------------
                                       fade out                               



Important: The song above is NOT stored on the Chordie server. The original song is hosted at www.xguitar.com. Chordie works as a search engine and provides on-the-fly formatting. Chordie does not index songs against artists'/composers' will. To remove this song please click here.

This song is displayed as text-only. Transposing and tuning is only available for chordpro-songs.

Login - add to songbook

Rating click stars to rate

Layout
Accuracy

SHARE PAGE  




You need to log in to post comments