Chordie logo


I Am Mine   Pearl Jam



i am mine
pearl jam
TRANSCRIBED BY RUDY GUZMAN


guzman_84@hotmail.com


  repeat
e:--------------------------------|
B:-3-3-3--6--8--6--5-5-5--6--5--3-|
G:-2-2-2--5--7--5--4-4-4--5--4--2-|
D:-0------0--0--0--0------0--0--0-|
A:--------------------------------|
E:--------------------------------|

e:-----------------------|
B:-3-3-3--6--8--6--5-5-5-|
G:-2-2-2--5--7--5--4-4-4-|
D:-0------0--0--0--0-----|
A:-----------------------|
E:-----------------------|

:---------------------------------------|
:--5--5--5-5-5-5-5-5-5------------------|
:--4--4--4-4-4-4-4-4-4--2-2-2-2-2-2-2-2-|
:--0--0--0-0-0-0-0-0----2-2-2-2-2-2-2-2-|
:-----------------------0-0-0-0-0-0-0-0-|
:---------------------------------------|

 verse
  repeat
e:-2--2-2------------------3--3-3-|
B:-3--3-3--1--1-1--1--1-1--3--3-3-|
G:-2--2-2--2--2-2--0--0-0--0--0-0-|
D:-0-------3--3-3--2--2-2--0--0-0-|
A:-----------------3--3-3--0--0-0-|
E:-------------------------3--3-3-|


:-1--1-1---3--3-3---2--2-2-|
:-1--1-1---3--3-3---3--3-3-|
:-2--2-2---0--0-0---2--2-2-|
:-3--3-3---0--0-0---0------|
:-3--3-3---2--2-2----------|
:-1--1-1---3--3-3----------|

  repeat
e:-2--2-2------------------3--3-3-|
B:-3--3-3--1--1-1--1--1-1--3--3-3-|
G:-2--2-2--2--2-2--0--0-0--0--0-0-|
D:-0-------3--3-3--2--2-2--0--0-0-|
A:-----------------3--3-3--0--0-0-|
E:-------------------------3--3-3-|


:-1--1-1---3--3-3---2--2-2-2-2-2-|
:-1--1-1---3--3-3---3--3-3-3-3-3-|
:-2--2-2---0--0-0---2--2-2-2-2-2-|
:-3--3-3---0--0-0---0------------|
:-3--3-3---2--2-2----------------|
:-1--1-1---3--3-3----------------|



:-1--1-1---3--3-3---2--2-2-2-2-2-|
:-1--1-1---3--3-3---3--3-3-3-3-3-|
:-2--2-2---0--0-0---2--2-2-2-2-2-|
:-3--3-3---0--0-0---0------------|
:-3--3-3---2--2-2----------------|
:-1--1-1---3--3-3----------------|


:--2--2-2-2-3-2-3-2-3-2|
:--3--3-3-3-3-3-3-3-3-3|
:--2--2-2-2-2-2-2-2-2-2|
:--0-------------------|
:----------------------|
:----------------------|

chorus
  repeat
:-3--3-3-3-------------2--2-2-2-3-2-|
:-3--3-3-3--1--1-1-1---3--3-3-3-3-3-|
:-0--0-0-0--2--2-2-2---2--2-2-2-2-2-|
:-0--0-0-0--2--2-2-2---0------------|
:-2--2-2-2--0--0-0-0----------------|
:-3--3-3-3--------------------------|


:-----------------------2--2-2-2-3-2-|
:-1--1-1-1-1-1-1-1-1-1--3--3-3-3-3-3-|
:-0--0-0-0-0-0-0-0-0-0--2--2-2-2-2-2-|
:-2--2-2-2-2-2-2-2-2-2--0------------|
:-3--3-3-3-3-3-3-3-3-3---------------|
:------------------------------------|

  repeat
e:--------------------------------|
B:-3-3-3--6--8--6--5-5-5--6--5--3-|
G:-2-2-2--5--7--5--4-4-4--5--4--2-|
D:-0------0--0--0--0------0--0--0-|
A:--------------------------------|
E:--------------------------------|

e:-----------------------|
B:-3-3-3--6--8--6--5-5-5-|
G:-2-2-2--5--7--5--4-4-4-|
D:-0------0--0--0--0-----|
A:-----------------------|
E:-----------------------|

:---------------------------------------|
:--5--5--5-5-5-5-5-5-5------------------|
:--4--4--4-4-4-4-4-4-4--2-2-2-2-2-2-2-2-|
:--0--0--0-0-0-0-0-0----2-2-2-2-2-2-2-2-|
:-----------------------0-0-0-0-0-0-0-0-|
:---------------------------------------|

 verse
  repeat
e:-2--2-2------------------3--3-3-|
B:-3--3-3--1--1-1--1--1-1--3--3-3-|
G:-2--2-2--2--2-2--0--0-0--0--0-0-|
D:-0-------3--3-3--2--2-2--0--0-0-|
A:-----------------3--3-3--0--0-0-|
E:-------------------------3--3-3-|


:-1--1-1---3--3-3---2--2-2-|
:-1--1-1---3--3-3---3--3-3-|
:-2--2-2---0--0-0---2--2-2-|
:-3--3-3---0--0-0---0------|
:-3--3-3---2--2-2----------|
:-1--1-1---3--3-3----------|

  repeat
e:-2--2-2------------------3--3-3-|
B:-3--3-3--1--1-1--1--1-1--3--3-3-|
G:-2--2-2--2--2-2--0--0-0--0--0-0-|
D:-0-------3--3-3--2--2-2--0--0-0-|
A:-----------------3--3-3--0--0-0-|
E:-------------------------3--3-3-|


:-1--1-1---3--3-3---2--2-2-2-2-2-|
:-1--1-1---3--3-3---3--3-3-3-3-3-|
:-2--2-2---0--0-0---2--2-2-2-2-2-|
:-3--3-3---0--0-0---0------------|
:-3--3-3---2--2-2----------------|
:-1--1-1---3--3-3----------------|



:-1--1-1---3--3-3---2--2-2-2-2-2-|
:-1--1-1---3--3-3---3--3-3-3-3-3-|
:-2--2-2---0--0-0---2--2-2-2-2-2-|
:-3--3-3---0--0-0---0------------|
:-3--3-3---2--2-2----------------|
:-1--1-1---3--3-3----------------|


:--2--2-2-2-3-2-3-2-3-2|
:--3--3-3-3-3-3-3-3-3-3|
:--2--2-2-2-2-2-2-2-2-2|
:--0-------------------|
:----------------------|
:----------------------|

chorus
  repeat
:-3--3-3-3-------------2--2-2-2-3-2-|
:-3--3-3-3--1--1-1-1---3--3-3-3-3-3-|
:-0--0-0-0--2--2-2-2---2--2-2-2-2-2-|
:-0--0-0-0--2--2-2-2---0------------|
:-2--2-2-2--0--0-0-0----------------|
:-3--3-3-3--------------------------|


:-----------------------2--2-2-2-3-2-|
:-1--1-1-1-1-1-1-1-1-1--3--3-3-3-3-3-|
:-0--0-0-0-0-0-0-0-0-0--2--2-2-2-2-2-|
:-2--2-2-2-2-2-2-2-2-2--0------------|
:-3--3-3-3-3-3-3-3-3-3---------------|
:------------------------------------|


  repeat
:--2--2-2-2-3-2-3-2-3-2--------|
:--3--3-3-3-3-3-3-3-3-3--1-1-1-|
:--2--2-2-2-2-2-2-2-2-2--0-0-0-|
:--0---------------------2-2-2-|
:------------------------3-3-3-|
:------------------------------|

 repeat
:--2--2-2-2-3-2-3-2-3-2-|
:--3--3-3-3-3-3-3-3-3-3-|
:--2--2-2-2-2-2-2-2-2-2-|
:--0--------------------|
:-----------------------|
:-----------------------|

:---------|
:---1-1-1-|
:---0-0-0-|
:---2-2-2-|
:---3-3-3-|
:---------|

chorus
  repeat
:-3--3-3-3-------------2--2-2-2-3-2-|
:-3--3-3-3--1--1-1-1---3--3-3-3-3-3-|
:-0--0-0-0--2--2-2-2---2--2-2-2-2-2-|
:-0--0-0-0--2--2-2-2---0------------|
:-2--2-2-2--0--0-0-0----------------|
:-3--3-3-3--------------------------|


:-----------------------2--2-2-2-3-2-|
:-1--1-1-1-1-1-1-1-1-1--3--3-3-3-3-3-|
:-0--0-0-0-0-0-0-0-0-0--2--2-2-2-2-2-|
:-2--2-2-2-2-2-2-2-2-2--0------------|
:-3--3-3-3-3-3-3-3-3-3---------------|
:------------------------------------|

solo
:--15----------15---------15----------------------------12------------12----------------|
:-----15----------15---------15----------------------12----15b--15~~-----15-12----------|
:--------14bf--------14b--------14b-14bp12-14~~~--14---------------------------15-14-12-|
:---------------------------------------------------------------------------------------|
:---------------------------------------------------------------------------------------|
:---------------------------------------------------------------------------------------|


:--------------------12-15----12-15-12----------------------------------------------------|
:-----------------15-------15----------15-12-15-12----------------------------------------|
:-14bp12-12~~~~------------------------------------15-14-12----12h14p12-12~~~--12----12-14|
:-----------------------------------------------------------14--------------------14------|
:-----------------------------------------------------------------------------------------|
:-----------------------------------------------------------------------------------------|


:--------------------------|
:----15b~~~~-(15b)--(15b)--|
:12------------------------|
:--------------------------|
:--------------------------|


Important: The song above is NOT stored on the Chordie server. The original song is hosted at www.xguitar.com. Chordie works as a search engine and provides on-the-fly formatting. Chordie does not index songs against artists/composers will. To remove this song please click here.

This song is displayed as text-only. Transposing and tuning is only available for chordpro-songs.

Login - add to songbook

Rating click stars to rate

Layout
Accuracy

SHARE PAGE  




You need to log in to post comments