eToCache5 = ""; ?> I Am Mine by Pearl Jam - guitar chords, guitar tabs and lyrics - chordie

I Am Mine

Pearl Jam


i am mine pearl jam TRANSCRIBED BY RUDY GUZMAN
guzman_84@hotmail.com
repeat e:--------------------------------| B:-3-3-3--6--8--6--5-5-5--6--5--3-| G:-2-2-2--5--7--5--4-4-4--5--4--2-| D:-0------0--0--0--0------0--0--0-| A:--------------------------------| E:--------------------------------|
e:-----------------------| B:-3-3-3--6--8--6--5-5-5-| G:-2-2-2--5--7--5--4-4-4-| D:-0------0--0--0--0-----| A:-----------------------| E:-----------------------|
:---------------------------------------| :--5--5--5-5-5-5-5-5-5------------------| :--4--4--4-4-4-4-4-4-4--2-2-2-2-2-2-2-2-| :--0--0--0-0-0-0-0-0----2-2-2-2-2-2-2-2-| :-----------------------0-0-0-0-0-0-0-0-| :---------------------------------------|
verse repeat e:-2--2-2------------------3--3-3-| B:-3--3-3--1--1-1--1--1-1--3--3-3-| G:-2--2-2--2--2-2--0--0-0--0--0-0-| D:-0-------3--3-3--2--2-2--0--0-0-| A:-----------------3--3-3--0--0-0-| E:-------------------------3--3-3-|
:-1--1-1---3--3-3---2--2-2-| :-1--1-1---3--3-3---3--3-3-| :-2--2-2---0--0-0---2--2-2-| :-3--3-3---0--0-0---0------| :-3--3-3---2--2-2----------| :-1--1-1---3--3-3----------|
repeat e:-2--2-2------------------3--3-3-| B:-3--3-3--1--1-1--1--1-1--3--3-3-| G:-2--2-2--2--2-2--0--0-0--0--0-0-| D:-0-------3--3-3--2--2-2--0--0-0-| A:-----------------3--3-3--0--0-0-| E:-------------------------3--3-3-|
:-1--1-1---3--3-3---2--2-2-2-2-2-| :-1--1-1---3--3-3---3--3-3-3-3-3-| :-2--2-2---0--0-0---2--2-2-2-2-2-| :-3--3-3---0--0-0---0------------| :-3--3-3---2--2-2----------------| :-1--1-1---3--3-3----------------|
:-1--1-1---3--3-3---2--2-2-2-2-2-| :-1--1-1---3--3-3---3--3-3-3-3-3-| :-2--2-2---0--0-0---2--2-2-2-2-2-| :-3--3-3---0--0-0---0------------| :-3--3-3---2--2-2----------------| :-1--1-1---3--3-3----------------|
:--2--2-2-2-3-2-3-2-3-2| :--3--3-3-3-3-3-3-3-3-3| :--2--2-2-2-2-2-2-2-2-2| :--0-------------------| :----------------------| :----------------------|
chorus repeat :-3--3-3-3-------------2--2-2-2-3-2-| :-3--3-3-3--1--1-1-1---3--3-3-3-3-3-| :-0--0-0-0--2--2-2-2---2--2-2-2-2-2-| :-0--0-0-0--2--2-2-2---0------------| :-2--2-2-2--0--0-0-0----------------| :-3--3-3-3--------------------------|
:-----------------------2--2-2-2-3-2-| :-1--1-1-1-1-1-1-1-1-1--3--3-3-3-3-3-| :-0--0-0-0-0-0-0-0-0-0--2--2-2-2-2-2-| :-2--2-2-2-2-2-2-2-2-2--0------------| :-3--3-3-3-3-3-3-3-3-3---------------| :------------------------------------|
repeat e:--------------------------------| B:-3-3-3--6--8--6--5-5-5--6--5--3-| G:-2-2-2--5--7--5--4-4-4--5--4--2-| D:-0------0--0--0--0------0--0--0-| A:--------------------------------| E:--------------------------------|
e:-----------------------| B:-3-3-3--6--8--6--5-5-5-| G:-2-2-2--5--7--5--4-4-4-| D:-0------0--0--0--0-----| A:-----------------------| E:-----------------------|
:---------------------------------------| :--5--5--5-5-5-5-5-5-5------------------| :--4--4--4-4-4-4-4-4-4--2-2-2-2-2-2-2-2-| :--0--0--0-0-0-0-0-0----2-2-2-2-2-2-2-2-| :-----------------------0-0-0-0-0-0-0-0-| :---------------------------------------|
verse repeat e:-2--2-2------------------3--3-3-| B:-3--3-3--1--1-1--1--1-1--3--3-3-| G:-2--2-2--2--2-2--0--0-0--0--0-0-|
D:-0-------3--3-3--2--2-2--0--0-0-| A:-----------------3--3-3--0--0-0-| E:-------------------------3--3-3-|
:-1--1-1---3--3-3---2--2-2-| :-1--1-1---3--3-3---3--3-3-| :-2--2-2---0--0-0---2--2-2-| :-3--3-3---0--0-0---0------| :-3--3-3---2--2-2----------| :-1--1-1---3--3-3----------|
repeat e:-2--2-2------------------3--3-3-| B:-3--3-3--1--1-1--1--1-1--3--3-3-| G:-2--2-2--2--2-2--0--0-0--0--0-0-| D:-0-------3--3-3--2--2-2--0--0-0-| A:-----------------3--3-3--0--0-0-| E:-------------------------3--3-3-|
:-1--1-1---3--3-3---2--2-2-2-2-2-| :-1--1-1---3--3-3---3--3-3-3-3-3-| :-2--2-2---0--0-0---2--2-2-2-2-2-| :-3--3-3---0--0-0---0------------| :-3--3-3---2--2-2----------------| :-1--1-1---3--3-3----------------|
:-1--1-1---3--3-3---2--2-2-2-2-2-| :-1--1-1---3--3-3---3--3-3-3-3-3-| :-2--2-2---0--0-0---2--2-2-2-2-2-| :-3--3-3---0--0-0---0------------| :-3--3-3---2--2-2----------------| :-1--1-1---3--3-3----------------|
:--2--2-2-2-3-2-3-2-3-2| :--3--3-3-3-3-3-3-3-3-3| :--2--2-2-2-2-2-2-2-2-2| :--0-------------------| :----------------------| :----------------------|
chorus repeat :-3--3-3-3-------------2--2-2-2-3-2-| :-3--3-3-3--1--1-1-1---3--3-3-3-3-3-| :-0--0-0-0--2--2-2-2---2--2-2-2-2-2-| :-0--0-0-0--2--2-2-2---0------------| :-2--2-2-2--0--0-0-0----------------| :-3--3-3-3--------------------------|
:-----------------------2--2-2-2-3-2-| :-1--1-1-1-1-1-1-1-1-1--3--3-3-3-3-3-| :-0--0-0-0-0-0-0-0-0-0--2--2-2-2-2-2-| :-2--2-2-2-2-2-2-2-2-2--0------------| :-3--3-3-3-3-3-3-3-3-3---------------| :------------------------------------|
repeat :--2--2-2-2-3-2-3-2-3-2--------| :--3--3-3-3-3-3-3-3-3-3--1-1-1-| :--2--2-2-2-2-2-2-2-2-2--0-0-0-| :--0---------------------2-2-2-| :------------------------3-3-3-| :------------------------------|
repeat :--2--2-2-2-3-2-3-2-3-2-| :--3--3-3-3-3-3-3-3-3-3-| :--2--2-2-2-2-2-2-2-2-2-| :--0--------------------| :-----------------------| :-----------------------|
:---------| :---1-1-1-| :---0-0-0-| :---2-2-2-| :---3-3-3-| :---------|
chorus repeat :-3--3-3-3-------------2--2-2-2-3-2-| :-3--3-3-3--1--1-1-1---3--3-3-3-3-3-| :-0--0-0-0--2--2-2-2---2--2-2-2-2-2-| :-0--0-0-0--2--2-2-2---0------------| :-2--2-2-2--0--0-0-0----------------| :-3--3-3-3--------------------------|
:-----------------------2--2-2-2-3-2-| :-1--1-1-1-1-1-1-1-1-1--3--3-3-3-3-3-| :-0--0-0-0-0-0-0-0-0-0--2--2-2-2-2-2-| :-2--2-2-2-2-2-2-2-2-2--0------------| :-3--3-3-3-3-3-3-3-3-3---------------| :------------------------------------|
solo :--15----------15---------15----------------------------12------------12----------------| :-----15----------15---------15----------------------12----15b--15~~-----15-12----------| :--------14bf--------14b--------14b-14bp12-14~~~--14---------------------------15-14-12-| :---------------------------------------------------------------------------------------| :---------------------------------------------------------------------------------------| :---------------------------------------------------------------------------------------|
:--------------------12-15----12-15-12----------------------------------------------------| :-----------------15-------15----------15-12-15-12----------------------------------------| :-14bp12-12~~~~------------------------------------15-14-12----12h14p12-12~~~--12----12-14| :-----------------------------------------------------------14--------------------14------| :-----------------------------------------------------------------------------------------| :-----------------------------------------------------------------------------------------|
:--------------------------| :----15b~~~~-(15b)--(15b)--| :12------------------------| :--------------------------| :--------------------------| :--------------------------|









variations - click chord images
Transpose chords:
Tuning:
Cool service:
View: Size:
A  A  A
Rating:
Layout:
  • Currently 0/5 Stars.
  • 1
  • 2
  • 3
  • 4
  • 5
 
Accuracy:
  • Currently 2.8/5 Stars.
  • 1
  • 2
  • 3
  • 4
  • 5
 
click stars to rate
Chordie recommends:
Learn to play songs at Jamplay.com with video guitar lessons
Songbook:
Login to add this song to your songbook
Support the artist
Preview/buy this song
MSN Music
Why this non-profit ad?

 
login to add comments/video/corrections