Chordie logo

Do The Evolution   Pearl Jam







Author/Artist: Pearl Jam
Title: Do The Evolution
Album: Yield
Transcribed by: Evan Cowan
Email: ecowan@uclink4.berkeley.edu

Man those chorus chords are hard to figure out! I'm still not sure that they're 
right!
-|--------------------|-----------------|-----------------|-----------------|-
-|--------------------|-----------------|-----------------|-----------------|-
-|-x----------------8-|---------------8-|---------------8-|---------------8-|-
-|-x----------------8-|---------------8-|---------------8-|---------------8-|-
-|--------8----8-10---|-----8----8-10---|-----8----8-10---|-----8----8-10---|-
-|---10-----10--------|-/10---10--------|-/10---10--------|-/10---10--------|-
                                         Enter Guitar 2                       

-|-----------------|-----------------|-----------------|-----------------|----
-|-----------------|-----------------|-----------------|-----------------|----
-|---------------8-|---------------8-|---------------8-|---------------8-|----
-|---------------8-|---------------8-|---------------8-|---------------8-|----
-|-----8----8-10---|-----8----8-10---|-----8----8-10---|-----8----8-10---|----
-|-10----10--------|-10----10--------|-10----10--------|-10----10--------|----
  Both Guitars                                           repeat 2 times       

-|--------------------------------|-----------------|-----------------|-------
-|--------------------------------|-----------------|-----------------|-------
-|--3--3--3--3--3--3--2--2-2--1-1-|---------------8-|---------------8-|-------
-|--2--2--2--2--2--2--1--1-1--0-0-|---------------8-|---------------8-|-------
-|--7--7--7--7--7--7--6--6-6--5-5-|-----8----8-10---|-----8----8-10---|-------
-|--8--8--8--8--8--8--7--7-7--6-6-|-10----10--------|-10----10--------|-------
 G.1.play strings 5,6/G.2.play 3,4.                                           

-|-----------------|-----------------|----------------------------------|-----
-|-----------------|-----------------|----------------------------------|-----
-|---------------8-|---------------8-|--3--3--3--3--3--3--2--2-2--1--1--|-----
-|---------------8-|---------------8-|--2--2--2--2--2--2--1--1-1--0--0--|-----
-|-----8----8-10---|-----8----8-10---|--7--7--7--7--7--7--6--6-6--5--5--|-----
-|-10----10--------|-10----10--------|--8--8--8--8--8--8--7--7-7--6--6--|-----
                Repeat last 4 bars 2x  (same as before, and for all choruses) 

-|-----------------|-----------------|----------------------------------|-----
-|-----------------|-----------------|----------------------------------|-----
-|---------------8-|---------------8-|--3--3--3--3--3--3--2--2-2--1--1--|-----
-|---------------8-|---------------8-|--2--2--2--2--2--2--1--1-1--0--0--|-----
-|-----8----8-10---|-----8----8-10---|--7--7--7--7--7--7--6--6-6--5--5--|-----
-|-10----10--------|-10----10--------|--8--8--8--8--8--8--7--7-7--6--6--|-----
                                                                              

-|-----------------|-----------------|----------------------------------------
-|-----------------|-----------------|----------------------------------------
-|---------------8-|---------------8-|----------------------------------------
-|---------------8-|---------------8-|----------------------------------------
-|-----8----8-10---|-----8----8-10---|----------------------------------------
-|-10----10--------|-10----10--------|----------------------------------------
                                                                              

-|---------------------------------------------------------------|------------
-|---------------------------------------------------------------|------------
-|---------------------------------------------------------------|------------
-|-3b-0-0--0--0-3b-0-0--0--0-2b-0---------0-2---------3b-0-2b-0--|------------
-|--------------------------------3--3--3-----3-1--0-------------|------------
-|---------------------------------------------------------------|------------
 Bridge, both guitars                                                         

-|-0---0------0------0-----|---------------------------------|----------------
-|-3-----3------3------3---|---/15--15-----------------------|----------------
-|-2-------2------2------2-|-2-/14--14--14--14--14--14\------|----------------
-|-0-----------------------|-0----------12--12--12--12\------|----------------
-|-------------------------|-0-------------------------------|----------------
-|-------------------------|---------------------------------|----------------
 Guitar 1  Guitar 2                                         

-|---------------------------------------------------------------|------------
-|---------------------------------------------------------------|------------
-|---------------------------------------------------------------|------------
-|-3b-0-0--0--0-3b-0-0--0--0-2b-0---------0-2---------3b-0-2b-0--|------------
-|--------------------------------3--3--3-----3-1--0-------------|------------
-|---------------------------------------------------------------|------------
 Both Guitars                                                                 

-|-0---0------0------0-----|---------------|----------------------------|-----
-|-3-----3------3------3---|----15-----15--|----------------------------|-----
-|-2-------2------2------2-|-2--14-----14--|----------------------------|-----
-|-0-----------------------|-0--12-----12--|-3b-0-0--0--0-3b-0-0--0--0--|-----
-|-------------------------|-0-------------|----------------------------|-----
-|-------------------------|---------------|----------------------------|-----
 Guitar 1      (same)       Guitar 2        Both                              

-|-------------------------------------|-0---0------0------0------|-----------
-|-------------------------------------|-3-----3------3------3----|-----------
-|-------------------------------------|-2-------2------2------2--|-----------
-|-2b-0----------0-2---------3b-0-2b-0-|-0------------------------|-----------
-|------3--3---3-----3-1--0------------|--------------------------|-----------
-|-------------------------------------|--------------------------|-----------
                                       Guitar 1                               

-|---------------|-------------------------------|-----------------|----------
-|----15-----15--|-------------------------------|-----------------|----------
-|-2--14-----14--|--3--3--3--3--3--3-2--2-2-1--1-|---------------8-|----------
-|-0--12-----12--|--2--2--2--2--2--2-1--1-1-0--0-|---------------8-|----------
-|-0-------------|--7--7--7--7--7--7-6--6-6-5--5-|-----8----8-10---|----------
-|---------------|--8--8--8--8--8--8-7--7-7-6--6-|-10----10--------|----------
 Guitar 2                                                    Play 8x          

-|-----------------------------------|-0---0------0------0-----|--------------
-|----15------15--15----15----15-15\-|-3-----3------3------3---|--------------
-|-------------------16----15----14\-|-2-------2------2------2-|--------------
-|-----------------------------------|-0-----------------------|--------------
-|---------15------------------------|-------------------------|--------------
-|-----------------------------------|-------------------------|--------------
 "Hallelujah..."                                                              

-|-------------------------------------------------------------|--------------
-|-------------------------------------------------------------|--------------
-|-------------------------------------------------------------|--------------
-|-3b-0-0--0--0-3b-0-0--0--0-2b-0---------0-2--------3b-0-2b-0-|--------------
-|--------------------------------3--3--3-----3-1-0------------|--------------
-|-------------------------------------------------------------|--------------
                                                                              

-|-0---0------0------0-----|----------------|----------------------------|----
-|-3-----3------3------3---|-----15-----15--|----------------------------|----
-|-2-------2------2------2-|-2---14-----14--|----------------------------|----

-|-0-----------------------|-0---12-----12--|-3b-0-0--0--0-3b-0-0--0--0--|----
-|-------------------------|-0--------------|----------------------------|----
-|-------------------------|----------------|----------------------------|----
 Guit.1                    Guit.2                                             

-|-----------------------------------|-0---0------0------0-----|--------------
-|-----------------------------------|-3-----3------3------3---|--------------
-|-----------------------------------|-2-------2------2------2-|--------------
-|-2b-0---------0-2--------3b-0-2b-0-|-0-----------------------|--------------
-|------3--3--3-----3-1-0------------|-------------------------|--------------
-|-----------------------------------|-------------------------|--------------
                                      Guit.1                                  

-|----------------------14--14\-|--------------------------------|------------
-|------15--15--15--15--15--15\-|--------------------------------|------------
-|-2----14--14--14--14----------|--3--3--3--3--3--3-2--2-2-1---1-|------------
-|-0----12--12--12--------------|--2--2--2--2--2--2-1--1-1-0---0-|------------
-|-0----------------------------|--7--7--7--7--7--7-6--6-6-5---5-|------------
-|------------------------------|--8--8--8--8--8--8-7--7-7-6---6-|------------
 Guit. 2                         Both guitars                                 

-|-----------------------------------------------------------------|----------
-|-----------------------------------------------------------------|----------
-|-10vvvvvvv-12b14vvvvvvv-14r12--p10h12p10h12b14r12p10-12p10----10-|----------
-|-----------------------------------------------------------12----|----------
-|-----------------------------------------------------------------|----------
-|-----------------------------------------------------------------|----------
 Solo, Guitar 1           grad.release                                        

-|--------------------------13-----|----------------|--------------------|----
-|-13b15vvv-15--13h15p13p10----13b-|----------------|--------------------|----
-|---------------------------------|-7b--10-7---5-7-|-----10-7---10-7vvv-|----
-|---------------------------------|-7b--10-7---5-7-|-10b-10-7-7---------|----
-|---------------------------------|----------8-----|--------------------|----
-|---------------------------------|----------------|--------------------|----
                              quarter bends                                   

-|------------------|----------------------|-------------------------------|--
-|------------------|----------------------|-------------------------------|--
-|---------------8--|---------------8------|--3--3--3--3--3--3-2--2-2-1--1-|--
-|---------------8--|---------------8------|--2--2--2--2--2--2-1--1-1-0--0-|--
-|-----8----8-10----|-----8----8-10--------|--7--7--7--7--7--7-6--6-6-5--5-|--
-|-10----10---------|-10----10-------------|--8--8--8--8--8--8-7--7-7-6--6-|--
 Solo, guitar 2--8x   Verse, both guits.-8x                                   

-|-----------------|-----------------|-------------------------------|--------
-|-----------------|-----------------|-------------------------------|--------
-|---------------8-|---------------8-|--3--3--3--3--3--3-2--2-2-1--1-|--------
-|---------------8-|---------------8-|--2--2--2--2--2--2-1--1-1-0--0-|--------
-|-----8----8-10---|-----8----8-10---|--7--7--7--7--7--7-6--6-6-5--5-|--------
-|-10----10--------|-10----10--------|--8--8--8--8--8--8-7--7-7-6--6-|--------
  Play this line twice                                                        

-|------------------|---------------------------------------------------------
-|------------------|---------------------------------------------------------
-|---------------8--|---------------------------------------------------------
-|---------------8--|---------------------------------------------------------
-|-----8----8-10----|---------------------------------------------------------
-|-10----10---------|---------------------------------------------------------
  Repeat till end, fade out...                                                


Important: The song above is NOT stored on the Chordie server. The original song is hosted at www.xguitar.com. Chordie works as a search engine and provides on-the-fly formatting. Chordie does not index songs against artists/composers will. To remove this song please click here.

This song is displayed as text-only. Transposing and tuning is only available for chordpro-songs.

Login - add to songbook

Rating click stars to rate

Layout
Accuracy

SHARE PAGE  

You need to log in to post comments