Guitar Tabs, Chords and Lyrics


Rise Up   Pennywise



Mxtabs [http://www.mxtabs.net]
Artist: Pennywise
Song:   Rise Up
Album:  From The Ashes
Tab:	Scott Bird (Switchblade6)





(drums)



Intro:  [Harmonics on the palm mute]

e ----------------------------
b ----------------------------
G ----------------------------
D 44------77------99--77--44--
A 44------77------99--77--44--
E 22------55------77--55--22--
pm  ......  ......  ..  ..


e -------------------------------------------
b -------------------------------------------
G ------------------------11 11 11 11 11 11--
D 44------77------99--77--11 11 11 11 11 11--
A 44------77------99--77--9  9  9  9  9  9 --
E 22------55------77--55---------------------
pm  ......  ......  ..  ..



e --------------------------------------------
b --------------------------------------------
G --------------------------------------------
D 4-4-4-4----7-7-7-7----9-9--7-7--4-4-4-4--7--
A 4-4-4-4----7-7-7-7----9-9--7-7--4-4-4-4--7--
E 2-2-2-2----5-5-5-5----7-7--5-5--2-2-2-2--5--

e ---------------------------------------------------
b ---------------------------------------------------
G ---------------------------------------------------
D 4-4-4-4----7-7-7-7----9-9--7-7--4-4-4-4----11-9-9--
A 4-4-4-4----7-7-7-7----9-9--7-7--4-4-4-4----11-9-9--
E 2-2-2-2----5-5-5-5----7-7--5-5--2-2-2-2----9 -7-7--





Still Intro: (Fast Part)

e ----------------------------------------------------------
b ----------------------------------------------------------
G -----------------------------------------------------999--
D 44---7--4-7------99---7--9-7------44---7--4-7----2---999--
A 44---7--4-7------99---7--9-7------44---7--4-7----2---777--
E 22---5--2-5------77---5--7-5------22---5--2-5----0--------

e -------------------------------------------------------
b -------------------------------------------------------
G -------------------------------------------------7777--
D 44---7--4-7------99---7--9-7------44---7--4-7----7777--
A 44---7--4-7------99---7--9-7------44---7--4-7----5555--
E 22---5--2-5------77---5--7-5------22---5--2-5----------





Verse Part 1: (Well it's up to you...)

e -------------------------------------------------------
b -------------------------------------------------------
G -------------------------------------------------9~99--
D 444---7~77------999---7~77------444---7~7----2---9~99--
A 444---7~77------999---7~77------444---7~7----2---7~77--
E 222---5~55------777---5~55------222---5~5----0---------
pm......  ..............  ..............  .........  ....

e --------------------------------------------------
b --------------------------------------------------
G --------------------------------------------------
D 444---7~77------999---7~77------444---7~7----979--
A 444---7~77------999---7~77------444---7~7----979--
E 222---5~55------777---5~55------222---5~5----757--
pm......  ..............  ..............  ..........





Verse Part 2: (Well it's up to me...)

e ----------------------------------------------------------
b ----------------------------------------------------------
G -----------------------------------------------------999--
D 44---7--4-7------99---7--9-7------44---7--4-7----2---999--
A 44---7--4-7------99---7--9-7------44---7--4-7----2---777--
E 22---5--2-5------77---5--7-5------22---5--2-5----0--------

e -------------------------------------------------------
b -------------------------------------------------------
G -------------------------------------------------7777--
D 44---7--4-7------99---7--9-7------44---7--4-7----7777--
A 44---7--4-7------99---7--9-7------44---7--4-7----5555--
E 22---5--2-5------77---5--7-5------22---5--2-5----------





Chorus: (We gotta rise up...)

e -----------------------------------------
b -----------------------------------------
G -----------------------------------------
D 4-4-4-4-4-4---7-7-7-7-7-7---9-9-9-9-9-9--
A 4-4-4-4-4-4---7-7-7-7-7-7---9-9-9-9-9-9--
E 2-2-2-2-2-2---5-5-5-5-5-5---7-7-7-7-7-7-
pm.........................................

e ---------------------------------------------------------------------------
b ---------------------------------------------------------------------------
G ------9--4444----------9--4444----------9--4444----------------------11~~--
D 4--7--9--4444----4--7--9--4444----4--7--9--4444----4--7--2--7----4~~-11~~--
A 4--7--7--2222----4--7--7--2222----4--7--7--2222----4--7--2--5----4~~-9 ~~--
E 2--5-------------2--5-------------2--5-------------2--5--0-------2~~-------





Verse Part 1: (Well your point of view...)

e -------------------------------------------------------
b -------------------------------------------------------
G -------------------------------------------------9~99--
D 444---7~77------999---7~77------444---7~7----2---9~99--
A 444---7~77------999---7~77------444---7~7----2---7~77--
E 222---5~55------777---5~55------222---5~5----0---------
pm......  ..............  ..............  .........  ....

e --------------------------------------------------
b --------------------------------------------------
G --------------------------------------------------
D 444---7~77------999---7~77------444---7~7----979--
A 444---7~77------999---7~77------444---7~7----979--
E 222---5~55------777---5~55------222---5~5----757--
pm......  ..............  ..............  ..........





Verse Part 2: (Well it's plain to see...)

e ----------------------------------------------------------
b ----------------------------------------------------------
G -----------------------------------------------------999--
D 44---7--4-7------99---7--9-7------44---7--4-7----2---999--
A 44---7--4-7------99---7--9-7------44---7--4-7----2---777--
E 22---5--2-5------77---5--7-5------22---5--2-5----0--------

e -------------------------------------------------------
b -------------------------------------------------------
G -------------------------------------------------7777--
D 44---7--4-7------99---7--9-7------44---7--4-7----7777--
A 44---7--4-7------99---7--9-7------44---7--4-7----5555--
E 22---5--2-5------77---5--7-5------22---5--2-5----------





Chorus: (We gotta rise up...)

e -----------------------------------------
b -----------------------------------------
G -----------------------------------------
D 4-4-4-4-4-4---7-7-7-7-7-7---9-9-9-9-9-9--
A 4-4-4-4-4-4---7-7-7-7-7-7---9-9-9-9-9-9--
E 2-2-2-2-2-2---5-5-5-5-5-5---7-7-7-7-7-7--
pm.........................................

e ---------------------------------------------------------------
b ---------------------------------------------------------------
G ------9--4444----------9--4444----------9--4444----------------
D 4--7--9--4444----4--7--9--4444----4--7--9--4444----4--7--2--7--
A 4--7--7--2222----4--7--7--2222----4--7--7--2222----4--7--2--5--
E 2--5-------------2--5-------------2--5-------------2--5--0-----






Bridge: (Hey! Hey! Hey!...) [Harmonics on the palm mute]

e ----------------------------
b ----------------------------
G ----------------------------
D 44------77------99--77--44--
A 44------77------99--77--44--
E 22------55------77--55--22--
pm  ......  ......  ..  ..


e -------------------------------------------
b -------------------------------------------
G ------------------------11 11 11 11 11 11--
D 44------77------99--77--11 11 11 11 11 11--
A 44------77------99--77--9  9  9  9  9  9 --
E 22------55------77--55---------------------
pm  ......  ......  ..  ..





[Harmonics off]

e ----------------------------
b ----------------------------
G ----------------------------
D 44------77------99--77--44--
A 44------77------99--77--44--
E 22------55------77--55--22--
pm  ......  ......  ..  ..


e -------------------------------------------
b -------------------------------------------
G ------------------------11 11 11 11 11 11--
D 44------77------99--77--11 11 11 11 11 11--
A 44------77------99--77--9  9  9  9  9  9 --
E 22------55------77--55---------------------
pm  ......  ......  ..  ..

e --------------------------------------------
b --------------------------------------------
G --------------------------------------------
D 4-4-4-4----7-7-7-7----9-9--7-7--4-4-4-4--7--
A 4-4-4-4----7-7-7-7----9-9--7-7--4-4-4-4--7--
E 2-2-2-2----5-5-5-5----7-7--5-5--2-2-2-2--5--

e ---------------------------------------------------
b ---------------------------------------------------
G ---------------------------------------------------
D 4-4-4-4----7-7-7-7----9-9--7-7--4-4-4-4----11-9-9--
A 4-4-4-4----7-7-7-7----9-9--7-7--4-4-4-4----11-9-9--
E 2-2-2-2----5-5-5-5----7-7--5-5--2-2-2-2----9 -7-7--




Chorus: (We gotta rise up)

e -----------------------------------------
b -----------------------------------------
G -----------------------------------------
D 4-4-4-4-4-4---7-7-7-7-7-7---9-9-9-9-9-9--
A 4-4-4-4-4-4---7-7-7-7-7-7---9-9-9-9-9-9--
E 2-2-2-2-2-2---5-5-5-5-5-5---7-7-7-7-7-7--
pm.........................................

e ---------------------------------------------------------------
b ---------------------------------------------------------------
G ------9--4444----------9--4444----------9--4444----------------
D 4--7--9--4444----4--7--9--4444----4--7--9--4444----4--7--2--7--
A 4--7--7--2222----4--7--7--2222----4--7--7--2222----4--7--2--5--
E 2--5-------------2--5-------------2--5-------------2--5--0-----






Outro: (That's the way it's gonna be...)

e ------------------------------------------------------------------
b ------------------------------------------------------------------
G ------9--4444----------9--4444----------9--4444----------9--4444--
D 4--7--9--4444----4--7--9--4444----4--7--9--4444----4--7--9--4444--
A 4--7--7--2222----4--7--7--2222----4--7--7--2222----4--7--7--2222--
E 2--5-------------2--5-------------2--5-------------2--5-----------








Well that's the best I can do... I know it's not all correct, but enjoy anyway! In my opinion this is the best song on the CD.


--Give me a shout if you have something to say:
--Scott Bird


Important: The song above is NOT stored on the Chordie server. The original song is hosted at www.xguitar.com. Chordie works as a search engine and provides on-the-fly formatting. Chordie does not index songs against artists/composers will. To remove this song please click here.

This song is displayed as text-only. Transposing and tuning is only available for chordpro-songs.

Login - add to songbook

Rating click stars to rate

Layout
Accuracy

SHARE PAGE  




You need to log in to post comments