Guitar Tabs, Chords and Lyrics


Salvation   Pennywise



Artist   : Pennywise
Song     : Salvation
Album    : From The Ashes
Tabed by : Ivan Jovanovic (Amen_16@biznis.com.mk)
Tuning   : EADGHE

Intro
|-------------------------------------||--------------------|
|-------------------------------------||--------------------|
|-------------------------------------||--------------------|
|-888888-4----6----888888-4---4-6---6-||-888888888888888888-|
|-666666-2-44-4-66-666666-2-4-2-4-6-4-||-666666666666666666-|
|----------22---44----------2-----4---||--------------------|

Verse #1
|--------------------------------------------------------|
|--------------------------------------------------------|
|--------------------------------------------------------|
|-888888-4----6----888888-4---4-6---6-888888-11-11-13-13-|
|-666666-2-44-4-66-666666-2-4-2-4-6-4-666666-9--9--11-11-|
|----------22---44----------2-----4----------------------|

Verse #2
|--------------------------------------------------------------------------------||--------|
|--------------------------------------------------------------------------------||--------|
|--------------------------------------------------------------------------------||--------|
|-8888888-4---4-6---6-8888888-444-66-4-6-8888888-4---4-6---6-8888888-11-11-13-13-||--------|
|-6666666-2-4-2-4-6-4-6666666-222-44-2-4-6666666-2-4-2-4-6-4-6666666-9--9--11-11-||-888888-|
|-----------2-----4--------------------------------2-----4-----------------------||-666666-|

Chorus
|---------------------------------------------------||------------|
|---------------------------------------------------||------------|
|---------------------------------------------------||------------|
|-888888-11-11-11-11-11-11--------------------------||-8888888888-|
|-666666-9--9--9--9--9--9--999999-11-11-11-11-11-11-||-6666666666-|
|--------------------------777777-9--9--9--9--9--9--||------------|

Bridge
|------------------------------------------------------||--------------|
|------------------------------------------------------||--------------|
|------------------------------------------------------||--------------|
|-888---------444-888---------444-888---------444---11-||-888888888888-|
|-666-444-666-222-666-444-666-444-666-444-666-222-8-9--||-666666666666-|
|-----222-444---------222-444---------222-444-----6----||--------------|

End
|----------------------------|
|----------------------------|
|----------------------------|
|-888888888888-666-888888888-|
|-666666666666-444-666666666-|


Important: The song above is NOT stored on the Chordie server. The original song is hosted at www.xguitar.com. Chordie works as a search engine and provides on-the-fly formatting. Chordie does not index songs against artists/composers will. To remove this song please click here.

This song is displayed as text-only. Transposing and tuning is only available for chordpro-songs.

Login - add to songbook

Rating click stars to rate

Layout
Accuracy

SHARE PAGE  




You need to log in to post comments