Chordie logo

Waiting     Pennywise



Artist   : Pennywise
Song     : Waiting
Album    : From The Ashes
Tabed by : Ivan Jovanovic (Amen_16@biznis.com.mk)
Tuning   : EADGHE

Intro
Guitar 1
|----10----12----14----12----10----10----12----14----15----12-|
|-12----12----12----12----12----12----12----12----12----12----|
|-------------------------------------------------------------|
|-------------------------------------------------------------|
|-------------------------------------------------------------|
|-------------------------------------------------------------|

|----10----12----14----12----10--------------|
|-12----12----12----12----12-----13h12-13h12-|
|--------------------------------------------|
|--------------------------------------------|
|--------------------------------------------|
|--------------------------------------------|

Guitar 2
|-----------------------------------------------------------------|
|-----------------------------------------------------------------|
|-4---------------7---------------4---------------4---------------|
|-2-4444444444444-5-7777777777777-2-4444444444444-2-2222222222222-|
|---2222222222222---5555555555555---2222222222222---0000000000000-|
|-----------------------------------------------------------------|

Verse
|-----------------------------------------------------------------||------------------|
|-----------------------------------------------------------------||------------------|
|-4---------------7---------------4---------------4---------------||------------------|
|-2-4444444444444-5-7777777777777-2-4444444444444-2-2222222222222-||-2222222222222222-|
|---2222222222222---5555555555555---2222222222222---0000000000000-||-0000000000000000-|
|-----------------------------------------------------------------||------------------|

Chorus
|--------------------------------------------------------|
|--------------------------------------------------------|
|--------------------------------------------------------|
|-44444444444444-77777777777777--------------------------|
|-22222222222222-55555555555555-777777777777777-55555555-|
|-------------------------------555555555555555-33333333-|

Under Solo
|--------------------------------------------------------|
|--------------------------------------------------------|
|--------------------------------------------------------|
|-44444444444444-77777777777777--------------------------|
|-22222222222222-55555555555555-777777777777777-55555555-|
|-------------------------------555555555555555-33333333-|

Solo
|------------------------------------------------------------------------------------------|
|------------------------------------------------------------------------------------------|
|------------------------------------------------------------------------------------------|
|-------------4-------------------------------------4--------------------------------------|
|-0-2-5-2-2-5---5-2-2-5-2-0-------------0-2-5-2-2-5---5-2-2-5-2-0--------------------------|
|---------------------------3-5-7-5-3-2----------------------------3-5-7-5-3-2-3-5-7-5-3-2-|

Bridge
|-----------------|
|-----------------|
|-4---7---4---2---|
|-2-4-5-7-2-2-0---|

|---2---5---0---5-|


Important: The song above is NOT stored on the Chordie server. The original song is hosted at www.xguitar.com. Chordie works as a search engine and provides on-the-fly formatting. Chordie does not index songs against artists/composers will. To remove this song please click here.

This song is displayed as text-only. Transposing and tuning is only available for chordpro-songs.

Rating click stars to rate

Layout
Accuracy

SHARE PAGE  

You need to log in to post comments