Guitar Tabs, Chords and Lyrics


My Own Way   Pennywise



Tabbed out by: Jake
Band: Pennywise
Song: My Own Way
E-mail: waterfly13@aol.com


INTRO/VERSE:

e   ----------------------
B   ----------------------
G   ----------------------
D   ---5----------5---75--
A   -2-3-5-75---2-3-5-53-- Most of the verse is palm muted.
E   -0---3-53---0---3-----


CHORUS:

e   -----------------------------
B   -----------------------------
G   -----------------------------
D   ---5---7----------------5-7--
A   -2-3-5-5-three times--2-3-5--
E   -0---3----------------0------


SOLO:

guitar 1

B   -8-7--8-7--8-7--5-5- three times then -8-7--8/10-10-10-10--

guitar 2

e   --------------------------------
B   --------------------------------
G   --------------------------------
D   ---5---------------5---5/7-5/7--
A   -2-3-5-5/7-5/7---2-3-5-3/5-3/5--
E   -0---3-3/5-3/5---0---3----------

OUTRO:

e   ----------
B   ----------
G   ----------
D   ---5------
A   -2-3-5-7--
E   -0---3-5--

e   ----------
B   ----------
G   ----------
D   ----------
A   -7-5-4-2-- At the very end.


Important: The song above is NOT stored on the Chordie server. The original song is hosted at www.xguitar.com. Chordie works as a search engine and provides on-the-fly formatting. Chordie does not index songs against artists'/composers' will. To remove this song please click here.

This song is displayed as text-only. Transposing and tuning is only available for chordpro-songs.

Login - add to songbook

Rating click stars to rate

Layout
Accuracy

SHARE PAGE  




You need to log in to post comments