"yes"; ?> Billy Breathes by Phish - guitar chords, guitar tabs and lyrics - chordie

Billy Breathes

Phish

 DAmFG
 Time the greens(?) and pick up screams alone above the square,
 BbCBbF
 Whoa, sing softly 
 DAmFG
 Above the trees where Billy breathes we float upon the air,
 BbCEbBb
 Whoa, whoa (whoa)

 FDmi7CBbFDmi7EbBb
 Softly sing sweet songs, Softly sing sweet songs,
 FDmi7CBbAmGmBbAmD
 Softly sing sweet songs_, oooooooh        

 DAmFG
 Silent scenes, emotion beams, I'll wake you when we're there,
 BbCBbF
 Whoa, sing softly 
 DAmFG
 Time it seems in broken dreams to sleep beside the stair,
 BbCEbBb
 Whoa, whoa (whoa)

 FDmi7CBbFDmi7EbBb
 Softly sing sweet songs, Softly sing sweet songs,
 FDmi7CBbAmGmCBb
 Softly sing sweet songs_, oooooooh   

bridge:

 GbDbAbCmAbBbDbEb
Then the chorus again:

 FDmi7CBbFDmi7EbBb
 Softly sing sweet songs, Softly sing sweet songs,
 FDmi7CBbFDmi7EbBb
 Softly sing sweet songs, Softly sing sweet songs,
F Dmi7 C Bb Am Gm C Bb Eb F D (loud)
Softly sing sweet songs_, oooooooh

Solo:

from Ian Camfield
Here is the complete solo to Billy Breathes. I'm not quite sure about all the
hammer-ons, slides etc., but the rest is fairly accurate.

E-----------8----13/11-8-----------11p10-------------------
B--------10----------------11-8-11------11-----------------
G----7-10--------------------8-----------------------------
D-7h8------------------------------------------------------
A----------------------------------------------------------
E----------------------------------------------------------
E----------------------------------------------------------
B----------------------------------------------------------
G-10p8/7------------8\10--8--------8/7------7-8------------
D-------8\10-7-----------------9h10---9-10-----------------
A----------------------------------------------------------
E----------------------------------------------------------
E-----------8-11\13-15-16---15----11h14-11-----------------
B----8-11------------------------------------14------------
G-10-------------------------------------------------------
D----------------------------------------------------------
A----------------------------------------------------------
E----------------------------------------------------------
E-11-------------------------------------------------------
B----14-11-------------------------------------------------
G------------11-------10-----------------------------------
D---------------11/6-----11---------------6-9-10-----------
A-----------------------------11/9p8-6---------------------
E----------------------------------------------------------
E----------------------------10-11--10-13-11---------------
B---------------------8-12--------13-------------13--------
G-7------7-8-11------------------------------13------------
D---9-10---------------------------------------------------
A----------------------------------------------------------
E----------------------------------------------------------
E-11-13--------10-13-15-16-13-------13---------------------
B---------10h11---------------14--14-----------------------
G-------------------------------12-------------------------
D----------------------------------------------------------
A----------------------------------------------------------
E----------------------------------------------------------
E-16\15-13b14-11-14----------------------------------------
B---------------------------------11-14\13---13/15---------
G-------------------------11-13------------10--------------
D----------------------------------------------------------
A----------------------------------------------------------
E----------------------------------------------------------
E-------------------13-13----15-13-----13b14---------------
B-15-13-15-16---------------------16-----------------------
G----------------------------------------------------------
D----------------------------------------------------------
A----------------------------------------------------------
E----------------------------------------------------------
E-13-11-13b14-----15b16--13---13--15--15\14----------------
B----------------------------------------------------------
G----------------------------------------------------------
D----------------------------------------------------------
A----------------------------------------------------------
E----------------------------------------------------------
E-14-11----------------------------------------------------
B---------14-11--------13-------12-------14----------------
G-----------------11h13----11h13----11h13----13p11h13------
D----------------------------------------------------------
A----------------------------------------------------------
E----------------------------------------------------------
E-13-14-15---16r15b16r15-------15b16r15------15------------
B-------------------------16-----------16--14--16----------
G----------------------------15----------15----------------
D----------------------------------------------------------
A----------------------------------------------------------
E----------------------------------------------------------
E----15b16r15------12------12--------15b16r15--------------
B------------16--14--16--14--16----------------------------
G-15-----------15------15----------15----------------------
D----------------------------------------------------------
A----------------------------------------------------------
E----------------------------------------------------------
E--------15b16r15---------------13-------------------------
B-16--14--------------14---13------------------------------
G---15-------------------------(14)------------------------
D----------------------------------------------------------
A----------------------------------------------------------
E----------------------------------------------------------



Ab Am Bb C Cm D Db Eb F G Gb Gm
variations - click chord images
Transpose chords:
Tuning:
Cool service:
View: Size:
A  A  A
Rating:
Layout:
  • Currently 2.1/5 Stars.
  • 1
  • 2
  • 3
  • 4
  • 5
 
Accuracy:
  • Currently 3.2/5 Stars.
  • 1
  • 2
  • 3
  • 4
  • 5
 
click stars to rate
Chordie recommends:
Get acoustic guitar lessons and electric guitar lessons at JamPlay.com
Songbook:
Login to add this song to your songbook
Support the artist
Preview/buy this song
MSN Music
Why this non-profit ad?

 
login to add comments/video/corrections