Let There Be More Light

Pink Floyd

|-----------------------------------------------------|

|-----------------------------------------------------|

|----------------------------------------------------'|

|------5---3---5---3---3h5-------5---3---5---3---3h5-'|

|-----------------------------------------------------|

|--3-----3---3---3---3--------3----3---3---3---3------|

|-----------------------------------------------------|

|-----------------------------------------------------|

|----------------------------------------------------'|

|-----5---3---2---3---3h5-------5---3---2---3---3h5--'|

|-----------------------------------------------------|

|--3----3---3---3---3-------3-----3---3---3---3-------|

|-------------------------------------------------------|-----------------|

|-------------------------------------------------------|-----------------|

|-0--0--0h1p0--------0--0--0h1p0--------0--0--0h1p0----'|----0---0---0---0|

|--------------0--3---------------0--3-----------------'|--3---4---4---4--|

|-------------------------------------------------------|-----------------|

|-------------------------------------------------------|-----------------|


 CmFm
 Then at last the mighty ship descending on a point of flame
 CmDmAAb
Made contact with the human race at Mildenhall
w/riff 1
Now, now, now is the time, time
Time to be, be, be aware
 CmFm
 Carter's father saw it there and knew the Rhull revealed to him
 CmDmAAb
The living soul of Hereward the Wake
w/riff 1
Oh my, something in my eye, eye
Something in the sky, sky
Waiting there for me
 Cm
The outer lock rolled slowly back
 Fm
The servicemen were heard to sigh
 CmDmAAb
For there revealed in flowing robes was Lucy in the sky
w/riff 1
Oh, oh, did you ever?
No, no, never will they
I'll say!
 Cm
 Summoning his cosmic powers
 Fm
And glowing slightly from his toes
 CmDmAAb
His psychic emanations flowed.
 CmFmDmAAb
 |335543| |133111| |557765| |577655| |466544|








A Ab Cm Dm Fm
variations - click chord images
Transpose chords:
Tuning:
Cool service:
View: Size:
A  A  A
Rating:
Layout:
  • Currently 2.1/5 Stars.
  • 1
  • 2
  • 3
  • 4
  • 5
 
Accuracy:
  • Currently 2.4/5 Stars.
  • 1
  • 2
  • 3
  • 4
  • 5
 
click stars to rate
Chordie recommends:
Learn how to play guitar at JamPlay.com
Songbook:
Login to add this song to your songbook
Support the artist
Preview/buy this song
MSN Music
Why this non-profit ad?

 
login to add comments/video/corrections