eToCache5 = ""; ?> Pigs (Three Different Ones) by Pink Floyd - guitar chords, guitar tabs and lyrics - chordie

Pigs (Three Different Ones)

Pink Floyd

|---0-2-3-2-0-2-3---0-2-3-2-0-2-3---0-2-3-2-0-2-3---0-2-3-2-0-2-3------|

|-0---------------0---------------1---------------1--------------------|

|---------------------------------------------------------------------'|

|---------------------------------------------------------------------'|

|----------------------------------------------------------------------|

|----------------------------------------------------------------------|

|-17b---------------------------------------------------17b------------|

|------------19----0-0--0--0----0-0--0--0----0-0--0--0------0-0--0--0--|

|------------------0-0--0--0----0-0--0--0----0-0--0--0------0-0--0--0--|

|------------------9-9--9--9----5-5--5--5----5-5--5--5------5-5--5--5--|

|------------------7-7--7--7----3-3--3--3----7-7--7--7------3-3--3--3--|

|----------------------------------------------------------------------|

|-------------------------------------------------------0--0--0--------|

|-0-0--0--0----0-0--0--0-----0-0--0--0------------------0--0--0--------|

|-0-0--0--0----0-0--0--0-----0-0--0--0------------------0--0--0--------|

|-5-5--5--5----9-9--9--9--\5-5-5--5--5------5-----------2--2--2---2--2-|

|-3-3--3--3----7-7--7--7-----3-3--3--3--3-3-3---3----------------------|

|--------------------------------------------------3-2-----------------|

|--17b-----------3--3---2--0--------0-------------|

|-------1-1------3--3---3--0--15pb--0-------------|

|-------0-0------4--4---3--0--------0-------------|

|-------2-2-2----5--5---------------2-------------|

|----------------5--5---------------2-------------|

|-------3-3------3--3---------------0-------------|


 EmCGEm
 Big man, pig man, ha ha charade you are 
 CGEm
You well heeled big wheel, ha ha charade you are 
 CG
And when your hand is on your heart
 A7
 You're nearly a good laugh, almost a joker
With your head down the pigbin saying keep on digging
 Am7
 Pig stain on your fat chin
What do you hope to find down in the pig mine
You're nearly a laugh, you're nearly a laugh
 EmCEmDEmDEmDEmD
But you really a cry______        
 EmCGEm
 Bus stop rat bag, ha ha charade you are 
 CGEm
You fucked up old hag, ha ha charade you are 
 CG
 You radiate cold shafts of broken glass
 A7
 You're nearly a good laugh, almost worth a quick grin
You like the feel of steel, you're hot stuff with a hat pin
 Am7
 And good fun with a hand gun
You're nearly a laugh, you're nearly a laugh
 EmCEmDEmDEmDEmD
But you're really a cry______        
 EmDEmDEmDEmDEmDEmDEmDEmD
                                         C  Bb  C  Bb  C  Bb  C  Bb  C  Bb  C  Bb  Em  ....
 EmCEmCEmCEmCEmCEmCEmCEmCGEm
                                        Hey you, Whitehouse, ha ha charade you are 
 CGEm
You house proud town mouse, ha ha charade you are 
 CG
You're trying to keep our feeling off the street
 Am
 You're nearly a real treat, all tight lips and cold feet
And do you feel abused
.......! .......! .......! .......!
You gotta stem the evil tide and keep it all on the inside
Mary, you're nearly a treat, Mary, you're nearly a treat
 EmCEmDEmDEmDEmD
But you're really a cry_____        
 EmDCD
 (Repeat and fade)
Solo ~~~~~~~~~~ ~~~~~~~~~
|-12------------12----12----12---------12-------12--------------12--12-12--|
|-15b-----------15b---15b---15b--------15b----------15pb--------15b----15b-|
|--------------------------------------------------------------------------|
|--------------------------------------------------------------------------|
|--------------------------------------------------------------------------|
|--------------------------------------------------------------------------|

~~~~ ~~~~~~~~
~~~~~
|-12-12---12----14---14---14---14\-------15------------15b--12--15/17--17b-|
|----15b--15b---17b--17b--17b--17\---12------------12-------12-------------|
|--------------------------------------------------------------------------|
|--------------------------------------------------------------------------|
|--------------------------------------------------------------------------|
|--------------------------------------------------------------------------|

 11/2
|-17/19-19b-----19--17--17\15--17/19--17--15--14--15--14------14-----------|
|---------------------------------------------------------17-----17--15----|
|--------------------------------------------------------------------------|
|--------------------------------------------------------------------------|
|--------------------------------------------------------------------------|
|--------------------------------------------------------------------------|

1/2~~~~~~~ 1/2
~~~~
|-----------------12-------------------------------------------------------|
|-15--14-13\12-15----12h13p12-----12---------------------------------------|
|------------------------------14---14b--------12--14--14pb-p12---14-12----|
|---------------------------------------------------------------14------14-|
|--------------------------------------------------------------------------|
|--------------------------------------------------------------------------|

1/2~~~~ 1/2 ~~~~~~ ~~~~
|--------------------------------------------------------------------------|
|------15-15-----15b----15----------12-----------------------------0-----0-|
|-x-x-----14b----14b----14p12---14--12-----------------------------0---x-0-|
|--------------------------------------14--12------------------------------|
|------------------------------------------12--14\12p10--12p10-------------|
|--------------------------------------------------------------12----------|
|---------------------------3-----3------3-------5---5\3------/12--12------|
|-------------------------------------------------------------/12-----12---|
|-2b---2b---2b------0--2/4----/4----/4------4/6------6\4---4---------------|
|----------------2---------------------------------------------------------|
|--------------------------------------------------------------------------|
|--------------------------------------------------------------------------|

~~~~~~~~~~~~~~ 1/2
|-15p12-7--15p12-7--15p12-7--15p12-7---15b------------15--14--14b----14-12-|
|--------------------------------------------------------------------------|
|--------------------------------------------------------------------------|
|--------------------------------------------------------------------------|
|--------------------------------------------------------------------------|
|--------------------------------------------------------------------------|

~~~~ 1/4
|-12-----------------------------------------------------------------------|
|----15b-----15p12----12-12------------------------------------------------|
|------------------14-------14pb--12-14p12----12---------------------------|
|------------------------------------------14----14-13-12----12------------|
|---------------------------------------------------------14----14--10--12-|
|--------------------------------------------------------------------------|

~~~~~~
|-------------------------------------------12----15-----------------------|
|-12----------12-------14-14b----------15b--15b--------15b--12--15-----15\-|
|-12----------12---14--14-14b--14--12--------------------------------------|
|----14p12-----------------------------------------------------------------|
|----------14--------------------------------------------------------------|
|--------------------------------------------------------------------------|

~~~~~~~ 1/4
|---------------14---------14-------14-------------------------------------|
|-x-15--15---------14----------15-------14---------------------------------|
|-----------14---------14---------14--------14b----0-14b-12-14--12b--------|
|-------------------------------------------------------------------14-----|
|----------------------------------------------------------------------14\-|
|--------------------------------------------------------------------------|
|----------x---------------------------------------------------------------|
|--0--15------15-----------15----------------------------------------------|
|--0--14b-----14b--12--12-----12--14--14b--14pb--12----14-12---------------|
|--0------------------------------------------------14-------14-12---------|
|------------------------------------------------------------------12\-10--|
|--------------------------------------------------------------------------|

Repeat
once
|---------|----------------------------------------------------------------|
|---------|12--12--12--12--12--12-12--12---12-12--12-0-----12--0---12---12-|
|---------|12--12--12--12--12--12-12--12---12-12--12---0---12----0-12---12'|
|---------|---------------------------------------------------------------'|
|-12p10---|----------------------------------------------------------------|
|-------12|----------------------------------------------------------------|

Play until song
ends
|--15p12----15p12----15p12----15p12----15p12----15p12----15p12-----15p12---|
|--------12-------12-------12-------12-------12-------12-------12--------12|
|-------------------------------------------------------------------------'|
|-------------------------------------------------------------------------'|
|--------------------------------------------------------------------------|
|--------------------------------------------------------------------------|

NOTATION USED:
b= bend up one full tone (unless otherwise noted)
pb= Pre bend up one full tone (unless otherwise noted)
~~= Vibrato
/=Slide up
\=Slide down


A7 Am Am7 C D Em G
variations - click chord images
Transpose chords:
Tuning:
Cool service:
View: Size:
A  A  A
Rating:
Layout:
  • Currently 2.8/5 Stars.
  • 1
  • 2
  • 3
  • 4
  • 5
 
Accuracy:
  • Currently 2.5/5 Stars.
  • 1
  • 2
  • 3
  • 4
  • 5
 
click stars to rate
Chordie recommends:
Learn to play this song & others via video guitar lessons at JamPlay.com
Songbook:
Login to add this song to your songbook
Support the artist
Preview/buy this song
MSN Music
Why this non-profit ad?

 
login to add comments/video/corrections