"yes"; ?> Astronomy Domine by Pink Floyd - guitar chords, guitar tabs and lyrics - chordie

Astronomy Domine

Pink Floyd

--------------------------------------------------

--------------------------------------------------

--------------------------------------------------

--------------------------------------------------

--------------------------------------------------

-0-0-0-0-0-0-0-0-0-0-0-0-0-0-0-0-0-0-0-0-0-0-0-0--

-0--------------0-0----------------------

-0--------------0-0----------------------

-1--------------1-0----------------------

-2--------------2-1----------------------

-2--------------2-1----------------------

-0-0-0-0-3(4)-0-0-0-0-0-0-0-0-0-0-0-0-0--


VERSE:
E (play as standard E)
Lime and limpid green a second scene the fight between the blue you
Eb (play as A barre on 6)
once knew.
(All other chords play as A and E form barres)
 GA
 Floating down the sound resounds around the icey waters underground
 EEb
 Jupiter and Saturn, Oberon, Miranda, and Titania
 GG#
 Neptune, Titan, stars can frighten
|-12-12-12-11-11-11-10-10-10-9-9-9-8-8-8-7-7-7-6-6-6-5-5-5-----------------|
|-10-10-10--9--9--9--8--8--8-7-7-7-6-6-6-5-5-5-4-4-4-3-3-3-----------------|
|--------------------------------------------------------------------------|
|--------------------------------------------------------------------------|
|--------------------------------------------------------------------------|
|--------------------------------------------------------------------------|
|-10-10-----9-9---8-8---7-7---6-6---5-5---4-4---3-3------------------------|
|-10----10--9---9-8---8-7---7-6---6-5---5-4---4-3---3----------------------|
|-11-------10-----9-----8-----7-----6-----5-----4--------------------------|
|--------------------------------------------------------------------------|
|--------------------------------------------------------------------------|
|--------------------------------------------------------------------------|
|-2--------2--------3--------3------3-\----0-------------------------------|
|-3--3---3---3---3--4--4---4---4----4-\----0-------------------------------|
|-2----2-------2----3----3-------3--3-\----1-------------------------------|
|-0-----------------1---------------1-\----2-------------------------------|
|------------------------------------------2-------------------------------|
|------------------------------------------0-------------------------------|

(play following chords as E form barres falling from fret 12)
 EEbDC#CBBbA
 Aaah  Aaah  Aaah  Aaah  Aaah  Aaah  Aaah  Aaah
(and again as A form barres falling from 12)
 AG#GF#FEEbD
 Aaah  Aaah  Aaah  Aaah  Aaah  Aaah  Aaah  Aaah
 DEbE
          SOLO:(with slight distortion, heavy delay)
 E
E-|-12-12-12-12-12-12-12-12-12-12-12-12-12-12-12-12-|
B-|-------------------------------------------------|
G-|-------------------------------------------------|
D-|-------------------------------------------------|
A-|-------------------------------------------------|
E-|-------------------------------------------------|

 Eb
E-|-11-11-11-11-11-11-11-11-11-11-11-11-11-11-11-11-|
B-|-------------------------------------------------|
G-|-------------------------------------------------|
D-|-------------------------------------------------|
A-|-------------------------------------------------|
E-|-------------------------------------------------|

 GA
E-|-3-3sl10-10-10sl3-3-3sl10-10-10sl5-|-5-----------------|
B-|-----------------------------------|---5---------------|
G-|-----------------------------------|-----7b8-----------|
D-|-----------------------------------|---------7~~~~~----|
A-|-----------------------------------|-------------------|
E-|-----------------------------------|-------------------|

Follow same progression as verses.
Repeat chord sequence twice and go into second verse.
Second verse :
(Same progression)
Blinding signs flap
Flicker flicker flicker flam
Pow Wow
Stairway scare Dan
Dare who's there
Aaah Aaah Aaah Aaah Aaah Aaah Aaah Aaah
Aaah Aaah Aaah Aaah Aaah Aaah Aaah Aaah
(ritard)
 E
 Lime and limpid green the sound resounds the icey waters under
 E
 Lime and limpid green the sound resounds the icey waters underground.
 --
 Updated:  November 24, 1999


A B Bb C C# D E Eb F F# G G#
variations - click chord images
Transpose chords:
Tuning:
Cool service:
View: Size:
A  A  A
Rating:
Layout:
  • Currently 2.9/5 Stars.
  • 1
  • 2
  • 3
  • 4
  • 5
 
Accuracy:
  • Currently 2/5 Stars.
  • 1
  • 2
  • 3
  • 4
  • 5
 
click stars to rate
Chordie recommends:
Learn how to play guitar at JamPlay.com
Songbook:
Login to add this song to your songbook
Support the artist
Preview/buy this song
MSN Music
Why this non-profit ad?

 
login to add comments/video/corrections