Chordie logo


Chapter 24   Pink Floyd



-------------------------------PLEASE NOTE----------------------------
This file is the author's own work and represents their interpretation of 
the song. You may only use this file for private study, scholarship, or 
research.
----------------------------------------------------------------------
Transcription: Chris Hennessy (crazydiamond_75@hotmail.com)

CHAPTER 24
Pink Floyd
"The Piper at the Gates of Dawn"

(Barrett)

Although this song doesn't have any recognizable guitar on it I don't 
think (it does bass a little), I liked it enough to figure out a way you 
can do it on guitar. I'm not sure how it will play on electric since I 
figured it out on an acoustic and electrics tend to sound different.

Tuning= standard E A D G B E

Symbols

/ = slide up
\ slide down
-------------------------2---------------------------
-------------------------3---------------------------
-----2----2--------------2-------------2------2--2---
-----2----2--------------0-------------2------2--2---
-----0----0--------------------3-------0------0--0---
--3------------3----2---------------------3----------
All move-ment is ac - com - plished in six stages
The time is with the month of winter solstice

-----------------------3--------2---
-----------------------0--------3---
----------2------2-----0--------2---
----------2------2-----0--------0---
----------0------0-----2------------
--2---3----------------3-----2------
And the sev - enth brings re-turn
When the change is due to come

----------------2--------------------------------
----------------3--------------------------------
-2--2-----------2----------2-----------2-----2---
-2--2-----------0----------2-----------2-----2---
-0--0------------------3---0-----------0-----0---
---------3---2--------------------3--------------
Se-ven is the num - ber of the young light
Thunder in the Earth, the course of Hea - ven

-----------------------------------3------------2---
-----------------------------------0------------3---
----2------2-------------2--2------0------------2---
----2------2-------------2--2------0------------0---
----0------0-------------0--0------2----------------
-3--------------3---2--------------3--------2-------
It forms when darkness is in - creased by one
Things can-not be destroyed once and for all
-3-------2---------2---
-0-------3---------3---
-0-------2---------2---
-0-------0---------0---
-2--------------3------
-3---------------------
Change Return Success

----------------------------2---
----------------------------3---
---4---2---2----------------2---
---4---2---2----------------0---
---2---0---0--------------------
-3----------------3---3---2-----
Going and coming without error

-3-------2----------2---------------------------------------------
-0-------3----------3---------------------------------------------
-0-------2----------2--2-------------2----------------------------
-0--0----0----------0--2-------------2-------7 / 9 / 12 \ 11 \ ---
-2--------------3------0-------------0-------0---0---0----0-------
-3--------------------------------0--------0----------------------
Action brings good fortune Sunset Sunri - se
(for second time)

----------------------------------------------------------------------
----------------------------------------------------------------------
----2-----------------------------------------------------------------
----2-------7 / 9 / 12 \ 11 \ 9 \ 7 \ 5 / 7----7 \ 5------------------
----0-------0---0---0----0----0---0---0---0----0---0------------------
-0-------0-----------------------------------------------------------
Sunset Sunri - se Sun rise
(for final time)

------------------------------------------
------------------------------------------
------------------------------------------
-11 / 12 / 14 \ 12 \ 11 \ 9 / 12 \ 5 / 7--
-0----0----0----0----0----0---0----0---0--
------------------------------------------
Sun ri - se

-----------------
-----------------
-----------------
-5 / 9 \ 5 / 7---
-0---0---0---0---
-----------------
Sun ri - se
--
Updated:  August 12/2000


Important: The song above is NOT stored on the Chordie server. The original song is hosted at www.xguitar.com. Chordie works as a search engine and provides on-the-fly formatting. Chordie does not index songs against artists/composers will. To remove this song please click here.

This song is displayed as text-only. Transposing and tuning is only available for chordpro-songs.

Login - add to songbook

Rating click stars to rate

Layout
Accuracy

SHARE PAGE  




You need to log in to post comments