eToCache5 = ""; ?> This Picture by Placebo - guitar chords, guitar tabs and lyrics - chordie

This Picture

Placebo

 C#
E  |----------------------------------
H  |----------------------------------
G  |----------------------------------
D  |----------------------------------
A  |----------------------------------
E  |-99-999-999-999-999-999-999-999---

2. Intro (Powerchords):
 C#FC#F
E  ----------------------------------------------------------------
H  ----------------------------------------------------------------
G  ----------------------------------------------------------------
D  ----------------------------------------------------------------
A  ------------------88-888-888-888-8----------------88-888-888-888-
E  -999-999-999-999-9----------------99-999-999-999-9--------------

 A#FF#C#
E  -----------------------------------------------------------------|
H  -----------------------------------------------------------------|
G  -----------------------------------------------------------------|
D  -----------------------------------------------------------------|
A  -8----------------88-888-888-888-899-999-999-999-9---------------|
E  --66-666-666-666-6--------------------------------99-999-999-999-|

Strophe: 1. Gitarre wie im 2. Intro + 2.Gitarre:
 C#FC#FA#FF#C#
E  |--------------|----------------|---------------|------------|
H  |--------------|----------------|-1-2-1---1-----|------------|
G  |-3-1-0-1---3--|-3-1-0-1--------|-------3-----1-|-1----------|
D  |--------3---3-|--------3---4-3-|---------------|---3----4-3-|
A  |--------------|----------------|---------------|-----4------|
E  |--------------|----------------|---------------|------------|

Refrain: Powerchords: F# C# F# C# F# C# F# C#
2. Strophe: wie erste
Refrain
Bridge: Powerchords: F A# F A#
Refrain
Powerchords:
 C#FA#F#
E |----|----|----|----|
H |----|----|----|----|
G |----|-10-|----|-11-|
D |-11-|-10-|-8--|-11-|
A |-11-|-8 -|-8--|-9 -|
E |-9 -|----|-6--|----|






























A# C# F F#
variations - click chord images
Transpose chords:
Tuning:
Cool service:
View: Size:
A  A  A
Rating:
Layout:
  • Currently 2.1/5 Stars.
  • 1
  • 2
  • 3
  • 4
  • 5
 
Accuracy:
  • Currently 1/5 Stars.
  • 1
  • 2
  • 3
  • 4
  • 5
 
click stars to rate
Chordie recommends:
Check out JamPlay.com for online video guitar lessons
Songbook:
Login to add this song to your songbook
Support the artist
Preview/buy this song
MSN Music
Why this non-profit ad?

 
login to add comments/video/corrections