Chordie logo


Every You Every Me   Placebo



PLACEBO GUITAR TABLATURE

EVERY YOU EVERY ME

TABBED BY SCOTT ANDREWS/URI BAQUEIRO 

STANDARD PLACEBO TUNING

Tab sources come from : TFI Friday and Belgian TV appearences.

VERSE/INTRO

C  --------------------------------------------------------------------------
C  --------------------------------------------------------------------------
G# -6-6-6-6-6-6-6-6--6-6-6-6--8-8-8-8--6-6-6-6-6-6-6-6-6-6-6-----------------
D# -6-6-6-6-6-6-6-6--6-6-6-6--7-7-7-7--6-6-6-6-6-6-6-6-6-6-6-7-7-7-7-6-6-6-6-
A# -4-4-4-4-4-4-4-4--4-4-4-4--6-6-6-6--4-4-4-4-4-4-4-4-4-4-4-4-4-4-4-4-4-4-4-
F  ------------------5-5-5-5--7-7-7-7------------------4-4-4-5-5-5-5-5-5-5-5-

PRE-CHORUS/CHORUS (STEFANS PART)

C  ---------0-0-------------0-0-------------0-0---------------0-0-0-
C  ---------0-0-------------0-0-------------0-0---------------0-0-0-
G# -6-6-6-6-6-6-6-6-6-6-6-6-6-6-6-6-6-6-6-6-6-6-6-6-6-6-6-6-6-6-6-6-
D# -7-7-7-7-7-7-7-7-7-7-7-7-7-7-7-7-6-6-6-6-6-6-6-6-6-6-6-6-6-6-6-6-
A# -0-0-0-0-0-0-0-0-0-0-0-0-0-0-0-0-4-4-4-4-4-4-4-4-4-4-4-4-4-4-4-4-
F  -----------------------------------------------------------------

C  ---------0-0-0-------------0-0-0-0-0-0-0-0-0-0-0-----------0-0-0-
C  ---------0-0-0-------------0-0-0-0-0-0-0-0-0-0-0-----------0-0-0-
G# -6-6-6-6-6-6-6-6-6-6-6-6-6-6-6-6-6-6-6-6-6-6-6-6-6-6-6-6-6-6-6-6-
D# -7-7-7-7-7-7-7-7-7-7-7-7-7-7-7-7-7-7-7-7-7-7-7-7-7-7-7-7-7-7-7-7-
A# -7-7-7-7-7-7-7-7-7-7-7-7-7-7-7-7-7-7-7-7-7-7-7-7-7-7-7-7-7-7-7-7-
F  -5-5-5-5-5-5-5-5-5-5-5-5-5-5-5-5-0-0-0-0-0-0-0-0-4-4-4-4-4-4-4-4-

PRE-CHORUS/CHORUS (BRIANS PART)

C  -------------------------------------------------------------------------------------
C  -------------------------------------------------------------------------------------
G# -------------------------------------------------------------------------------------
Eb -------------------------------------------------------------------------------------
Bb --------------10-10-10-10-10-10-8-8-8-8-8-8-8-
F -------------------------------------------------------------------------------------

C  -----------------------------------------------------------------------------------------
C  -----------------------------------------------------------------------------------------
G# -----------------------------------------------------------------------------------------
Eb -----------------------------------------------------------------------------------------
Bb -----------------------------------------------
F  ---------------------------------------------------------------

OUTRO (BRIAN) Played on live version.

C  -------------------------------------------------------------------------------
C  -------------------------------------------------------------------------------
G# -15-15-15-15-15-15--15-15-15-13-13-13-13-13-13-15-15-15-15-15-13-13-13-13-13---
Eb -12-12-12-12-12-12--12-12-12-12-12-12-12-12-12-12-12-12-12-12-12-12-12-12-12---
Bb -0--0--0--0--0--0---0--0--0--0--0--0--0--0--0--0--0--0--0--0--0--0--0--0--0----
F  -------------------------------------------------------------------------------

Last chorus (2:32) fill with tremolo effect

C  -0---0-   
C  -0---0-   
G# -4---4-
D# -------
A# -------
F  -------

WEIRD KEYBOARD PART (NEAR END)

C  -16---12----16--12--------------19--16--12--------
C  -16---12----16--12--------------19--16--12--------
G# --------------------11--13-11-13------------------
Eb --------------------------------------------------
Bb --------------------------------------------------


Important: The song above is NOT stored on the Chordie server. The original song is hosted at www.xguitar.com. Chordie works as a search engine and provides on-the-fly formatting. Chordie does not index songs against artists/composers will. To remove this song please click here.

This song is displayed as text-only. Transposing and tuning is only available for chordpro-songs.

Login - add to songbook

Rating click stars to rate

Layout
Accuracy

SHARE PAGE  




You need to log in to post comments