Chordie logo

Pure Morning     Placebo



PLACEBO GUITAR TABLATURE

PURE MORNING

TABBED BY SCOTT ANDREWS

TUNING (Eb Bb C# G# C C)

LOOPED SAMPLE (PLAYED THROUGHOUT DURATION OF THE SONG)
C  -------------------------
C  -------------------------
G# -------------------------
C# -2---2---2---2-----------
Bb -5---5---5---5-----------   
Eb -0---0---0---0-----------
CHORUS:

C  ---------------------------------------------------------
C  ---------------------------------------------------------
G# ---------------------------------------------------------
C# ---------------------------------------------------------
Bb --5---5---5---5---5----5---5----5---5---5----9-9-9-10---- 
Eb ---------------------------

C  ---------------------------------------------------------
C  ---------------------------------------------------------
G# ---------------------------------------------------------
C# ---------------------------------------------------------
Bb --5---5---5---5---5----5---5----5---5---5---------------- 
Eb ---------------9-9-9-10----

THERE IS A NOISY PART ON THE LIVE VERSION, WHERE BRIAN PLAYS BEHIND THE BRIDGE ON HIS


Important: The song above is NOT stored on the Chordie server. The original song is hosted at www.xguitar.com. Chordie works as a search engine and provides on-the-fly formatting. Chordie does not index songs against artists/composers will. To remove this song please click here.

This song is displayed as text-only. Transposing and tuning is only available for chordpro-songs.

Rating click stars to rate

Layout
Accuracy

SHARE PAGE  

You need to log in to post comments