Chordie logo


Grain of Salt (What's the Use of Having a Heart)    Poison The Well



Poison The Well - Grain Of Salt
Submitted By: Sqweeky
EMail: Blindside831@aol.com



(Intro)and(chorus)

eb|-------------------(continue to pick in the transition)----------------|
Bb|-----------------------------------------------------------------------|
Gb|--5-5-5x-5x-5x-5x-5-5-5x-5x-5x-5x-5-5-5-5-8-8-8x-8x-8x-8x-8-8-8x-8x-8x-|
Db|--5-5-5x-5x-5x-5x-5-5-5x-5x-5x-5x-5-5-5-5-8-8-8x-8x-8x-8x-8-8-8x-8x-8x-|
Ab|--3-3-3x-3x-3x-3x-3-3-3x-3x-3x-3x-3-3-3-3-6-6-6x-6x-6x-6x-6-6-6x-6x-6x-|
Eb|-----------------------------------------------------------------------|


eb|-----------------------------------------------------------------------|
Bb|-----------------------------------------------------------------------|
Gb|--8x-8-8-8-8-3-3-3x-3x-3x-3x-3-3-3x-3x-3x-3x-3-3-----------------------|
Db|--8x-8-8-8-8-3-3-3x-3x-3x-3x-3-3-3x-3x-3x-3x-3-3-----------------------|
Ab|--6x-6-6-6-6-1-1-1x-1x-1x-1x-1-1-1x-1x-1x-1x-1-1-----------------------|
Eb|-----------------------------------------------------------------------|

eb|--------------------------------------|
Bb|--------------------------------------|   Play 6
Gb|--------------------------------------| Times Intro
Db|--6x-6x-6x-6x-6---8x-8x-8x-8x-8-------| Until(1:05)
Ab|--6x-6x-6x-6x-6---8x-8x-8x-8x-8-------|
Eb|--4x-4x-4x-4x-4---6x-6x-6x-6x-6-------|
				
(Verse1)

eb|------------------------------------------------------------------------------|
Bb|------------------------------------------------------------------------------|
Gb|------------5------------------------------------------10---------------------|
Db|----fast----5---------------------------------fast-----10--------slow---------|
Ab|3x-3x-3x-3x-3----------slow----------------8x-8x-8x-8x-8---6x-6x--6x-5x-6x-6x-|
Eb|-----------------8x-8x---8x-9x-9x-9x------------------------------------------|
	
Play Verse 1 four times


(Bridge)

eb|--------------------------|		|---------------------------|
Bb|--------------------------|		|---------------------------|
Gb|--5-5-5-5-5-5-5-5-5-5-5-5-| 4 times  |-5x5x5x5x-5x5x5x5x5x5x5x5x-|4 times
Db|--5-5-5-5-5-5-5-5-5-5-5-5-|		|-5x5x5x5x-5x5x5x5x5x5x5x5x-|
Ab|--3-3-3-3-3-3-3-3-3-3-3-3-|		|-3x3x3x3x-3x3x3x3x3x3x3x3x-|
Eb|--------------------------|		|---------------------------|





				   (Second guitar extremely fast)
eb|------------------------------------------------------------------------|
Bb|-----------------------------------(888888666666888888999888666)--------|
Gb|--5-5-5-5-5-5-5-5-7-7-7-7-7-7-7-7-8-8-8-8-8-8-8-8-8-8-8-8-8-8-8-8-------|
Db|--5-5-5-5-5-5-5-5-7-7-7-7-7-7-7-7-8-8-8-8-8-8-8-8-8-8-8-8-8-8-8-8-------|
Ab|--3-3-3-3-3-3-3-3-5-5-5-5-5-5-5-5-6-6-6-6-6-6-6-6-6-6-6-6-6-6-6-6-------|
Eb|------------------------------------------------------------------------|
			
	
    Play (Verse 1)



Important: The song above is NOT stored on the Chordie server. The original song is hosted at www.xguitar.com. Chordie works as a search engine and provides on-the-fly formatting. Chordie does not index songs against artists/composers will. To remove this song please click here.

This song is displayed as text-only. Transposing and tuning is only available for chordpro-songs.

Login - add to songbook

Rating click stars to rate

Layout
Accuracy

SHARE PAGE  




You need to log in to post comments