Guitar Tabs, Chords and Lyrics


A Wish for Wings That Work    Poison The Well



Poison The Well - A wish For wings That Work
Tabbed By: AsFriendsRust203
Email: afireinside3@aol.com

Tuning: Drop D (D A D G B E)

great song
R = rest
~ = LET RING
8x = repeat note 8 times

E|---------------------------------------------------------------------------||
B|---------------------------------------------------------------------------||
G|--------------1------------------------------------------------------------||
D|--0~----------0--strum with drums-------0----------------------------------||
A|--0~----------0-------------------------0----Vocals come in----------------||
D|--0~----------0-------------------------0----------------------------------||


E|---------------------------------------------------------------------------||
B|---------------------------------------------------------------------------||
G|---------------------------------------------------------------------------||
D|---------------------------------------------------------------------------||
A|---------------------------------------------------------------------------||
D|--0-0-0-0---0-0-0-0---0---R---0-0-0-0---0-0-0-0--0-0-0-0-0-R---------------||


E|---------------------------------------------------------------------------||
B|---------------------------------------------------------------------------||
G|---------------------------------------------------------------------------||
D|--1-0-0-0---7/8------------------------------------------------------------||
A|--1-0-0-0------------------------------------------------------------------||
D|--1-0-0-0---5/6-----0-0-0-0---0-0-0-0--0-R-0-0-0-0---0-0-0-0--0-0-0-0--R---||


E|-------------------------------------------------------------------------------||
B|-------------------------------------------------------------------------------||
G|-------------------------------------------------------------------------------||
D|-------------------------------------------------------------------------------||
A|-------------------------------------------------------------------------------||
D|-0-0-0-0-0-0-0-0-0---R--0-0-0-0---0-0-0-0---0-0-0-0--R--0-0-0-0-0-0-0-0-0-0--R-||


E|---------------------------------------------------------------------------||
B|---------------------------------------------------------------------------||
G|---------------------------------------------------------------------------||
D|---------------------------------------------------------------------------||
A|---------------------------------------------------------------------------||
D|--0-0-0-0---0-0-0-0---0-0-0-0--0---repeat 3 times--------------------------||


E|---------------------------------------------------------------------------||
B|---------------------------------------------------------------------------||
G|---------------------------------------------------------------------------||
D|-0~---------------------------------------------------------------0--------||
A|-0~---------0-0-0---0-0--0-0--0-0---0-0-0--0-0---0-0--0-0---------0--------||
D|-0~---------0-0-0---0-0--0-0--0-0---0-0-0--0-0---0-0--0-0---------0--------||


E|---------------------------------------------------------------------------||
B|---------------------------------------------------------------------------||
G|---------------------------------------------------------------------------||
D|--4-5-4---4-5-4--4-5-7-------1-1-1-1-1-1---1-1-1-1-1-1---repeat 4times-----||
A|--0--------------------------1-1-1-1-1-1---1-1-1-1-1-1---------------------||
D|--0--------------------------1-1-1-1-1-1---1-1-1-1-1-1---------------------||


E|---------------------------------6------------------------------------------||
B|------------------3----3-------3--------------------------------------------||
G|----------------3----3---3---3----------------------------------------------||
D|--0-----------5----5-------5------------------------------------------------||
A|--0-------------------------------------------------------------------------||
D|--0-------------------------------------------------------------------------||


E|----------------5-------------------5--------------------------------------||
B|------3--3---------------------3------2------------------------------------||
G|----3--3--3---3----------2---2---2-----------------------------------------||
D|--5---------5----------3---3-------3----3----------------------------------||
A|---------------------------------------------------------------------------||
D|---------------------------------------------------------------------------||


E|------5------6------5------------------------------------------------------||
B|----3---3------3------3----------------------------------------------------||
G|--2-------2------2------2---repeat staffs 8,9,10 2 times-------------------||
D|---------------------------------------------------------------------------||
A|---------------------------------------------------------------------------||
D|---------------------------------------------------------------------------||




E|---------------------------------------------------------------------------||
B|---------------------------------------------------------------------------||
G|---------7---------7--------9-9--------------------------------------------||
D|---------6---------6--------8-8--------------------------------------------||
A|---------6---------6--------6-6--------------------------------------------||
D|----6-6--6----6-6--6---6-6--6-6--------------------------------------------||


E|---------------------------------------------------------------------------||
B|--------3--------3---------------------------------------------------------||
G|--------3--------3---------------------------------------------------------||
D|--------3--------3--------repeat from staff 11-----------------------------||
A|---------------------------------------------------------------------------||
D|--3-3-------3-3------------------------------------------------------------||


E|---------------------------------------------------------------------------||
B|---------------------------------------------------------------------------||
G|---------------------------------------------------------------------------||
D|--8-8-8-8--7-7-7-7--3-3-3-3--4-4-4-4---------------------------------------||
A|--8-8-8-8--7-7-7-7--3-3-3-3--4-4-4-4---------------------------------------||
D|--6-6-6-6--5-5-5-5--1-1-1-1--2-2-2-2---------------------------------------||


E|---------------------------------------------------------------------------||
B|---------------------------------------------------------------------------||
G|---------------------------------------------------------------------------||
D|--8------7-------3------4--------------------------------------------------||
A|--8--8x--7--8x---3--8x--4--8x----------------------------------------------||
D|--6------5-------1------2--------------------------------------------------||


E|---------------------------------------------------------------------------||
B|---------------------------------------------------------------------------||
G|---------------------------------------------------------------------------||
D|--1-1-1--1-1-1---0-0-0-0-0-0-----------------------------------------------||
A|--1-1-1--1-1-1---0-0-0-0-0-0--1-1-1-1-1-1--2-2-2-2-2-2-----repeat 2--------||


Important: The song above is NOT stored on the Chordie server. The original song is hosted at www.xguitar.com. Chordie works as a search engine and provides on-the-fly formatting. Chordie does not index songs against artists'/composers' will. To remove this song please click here.

This song is displayed as text-only. Transposing and tuning is only available for chordpro-songs.

Login - add to songbook

Rating click stars to rate

Layout
Accuracy

SHARE PAGE  




You need to log in to post comments